Enviar cifraEntrar

Seja o centro

Diante do Trono

Cifra: Principal
exibições 214.330
Tom: D
Intro: D9

   ( D9 Bm7 G D9 )
E|------------------------------------------------------|---------------------------|
B|-7-8-8/10-10-7h8-7-------7h8-7-----10-------7-8-7-----|---------------------------|
G|-----------------9-7-7h9-------9-7----7-7--9-------7-7|-6h7p6-------------6-7-9---|
D|------------------------------------------------------|--------7/9-7-7-9----------|
A|------------------------------------------------------|---------------------------|
E|------------------------------------------------------|---------------------------|


E|-------------------------------------------------------------------------------------------|
B|---------------------------7-8-8/10-------10-8-7-8-7-7h8-----------------------------------|
G|-7p6h7-6h7p6-----------7-9---------7-7--7----------------7--6-7-9--7-6-6--6h7----6h7p6---7-|
D|-------------7/9-7-4-7--------------------------------------------------------7--------7---|
A|-------------------------------------------------------------------------------------------|
E|-------------------------------------------------------------------------------------------|


        A4  A        D4  D
Seja o centro, seja tudo
D  Em7 D/F#    G  Bm7  A9
Em meu cora...ção senhor.
       Em7          D4   D
Seja a vida, em meu peito,
D Em7  D/F# G     Bm7   A
Cada   dia aqui e eternamente.

G D/F# A A4 A
Jesus, Jesus,

C Bm7    A A4 A
Jesus, Jesus.

       A4 A        D4   D
Seja o sol que me aquece
D Em7  D/F# G   Bm7 A9
Em meu coração, senhor
        Em7            D4  D
Seja a força que me sustenta
D Em7  D/F# G   Bm7   A
Cada dia aqui e eternamente

G D/F# A A4 A
Jesus, Jesus,

C Bm7    A A4 A
Jesus, Jesus.

      D9       D/F#
Meu tesouro
       G         A9
Minha razão de viver
      Bm7  F#m7
Meu anseio
       A  Bm7
É te conhecer
            G             A/C#
Pois não há outro igual a ti
             G  D/F#    Bm7
A quem tenho eu além de ti
         C          A     ( Bm7   D/F# )
                          ( D     D/F# )
És minha vida, és a fonte jesus

G D/F# A A4 A  C
Jesus, Jesus,

Bm7    A A4 A
Jesus, Jesus.

Solo: G9  D/F#  A  A4  A

        C9  D  E  E4  E
E|------------------------------------------5/7-5------------8--------8-10/12|
B|------------3-3---3/5-3-------------2h3/5------5/7-5-10-12---8---10--------|
G|--------0-4-----4-------2-2-----2h4----------------------------9-----------|
D|----0h2---------------------2h4--------------------------------------------|
A|-0h2-----------------------------------------------------------------------|
E|---------------------------------------------------------------------------|


E|-10-------10-12----10-----------------------------|
B|----10-12-------12----12-10-----------------------|
G|----------------------------11-11/13-9/11-9-------|
D|--------------------------------------------9/11-9|
A|--------------------------------------------------|
E|--------------------------------------------------|


       B4 B           E4   E
Seja o centro, seja o tudo
E  F#m7 E/G# A  C#m7  B9
Em meu coração, Senhor
       F#m7        E4   E
Seja a vida em meu peito
E F#m7 E/G# A   C#m7    B9
Cada dia aqui e eternamente

A9   E/G#    B    B4   B
Jesus,       jesus,
D   C#m7     B    B4   B
Jesus,       jesus,

( E9 )
  • 1
  • 2
  • 3
  • 4
  • 5
  • 6
  • 7
  • 8
  • 9
  • 10
  • 11
  • 12
    Acordes para:
      Composição: Ana Paula ValadãoColaboração e revisão:

      0 comentários

        mostrar mais comentários

        Conseguiu tocar?

        13tocaram0ainda não

        Grave um vídeo tocando Seja o centro e mande pra gente!

        00:00 / 00:00
        outros vídeos desta música
        repetirqualidadeautomática
        • automática
        Outro vídeos desta música
          00:00 / 00:00
          automática
          • automática
          Acordes para:violão e guitarra
          dificuldadeexibiçõescontribuições
          1 versão de Tab de bateriaexibiçõescontribuições
          1 versão de Tab de gaitaexibiçõescontribuições
          1 versão de Guitar Proformatodownloadscontribuição
          1 versão de Partiturasformatodownloadscontribuição
          fecharplay/pause subir/descer velocidade
            acordes
            fechar
            OK
            Feedback