Cifra Club

Seja o Centro

Diante do Trono

Cifra: Principal (violão e guitarra)
exibições 252.511
Tom: A
[Intro]  D9  Bm7  G  D9

E|-------------------------------------------------------|---------------------------|
B|-7-8-8/10-10--7h8-7----------7h8-----10--------7-8-7---|---------------------------|
G|------------------9-7-7h9-9------9-7----7-7--9------7-7|-6h7p6-------------6-7-9---|
D|-------------------------------------------------------|-----------7/9-7-7-9-------|
A|-------------------------------------------------------|---------------------------|
E|-------------------------------------------------------|---------------------------|

E|--------------------------------------------------------------------------------------------|
B|---------------------------7-8-8/10-------10-8-7-8-7-7h8---------------------------------10~|
G|-7p6h7-6h7p6-----------7-9---------7-7--7----------------7--6-7-9--7-6-6--6h7----6h7p6------|
D|-------------7/9-7-4-7--------------------------------------------------------7--------7----|
A|--------------------------------------------------------------------------------------------|
E|--------------------------------------------------------------------------------------------|

        A4  A        D4  D
Seja o centro, seja tudo
D   Em7 D/F#   G   Bm7  A9
Em meu cora...ção se__nhor
        Em7          D4   D
Seja a vida, em meu peito
 D Em7  D/F#  G     Bm7  A
Cada   dia aqui e eternamente

[Refrão]

   G D/F# A A4 A
Jesus,   Jesus
   C Bm7   A A4 A
Jesus,    Jesus

        A4 A          D4   D
Seja o sol  que me aquece
D   Em7 D/F# G    Bm7 A9
Em meu cora-ção, se-nhor
        Em7             D4 D
Seja a força que me sustenta
 D Em7 D/F#  G   Bm7    A
Cada  dia aqui e eternamente

[Refrão]

   G D/F# A A4 A
Jesus,   Jesus
   C Bm7   A A4 A
Jesus,    Jesus

Ponte:
       D9    D/F#
Meu tesouro
         G        A9
Minha razão de viver
       Bm7  F#m7
Meu anseio
           A  Bm7
É te conhecer

            G              A/C#
Pois não há outro igual a ti
             G    D/F#   Bm7
A quem tenho eu além de ti
          C          A       Bm7   D/F#
És minha vida, és a fonte jesus
            G              A/C#
Pois não há outro igual a ti
             G    D/F#   Bm7
A quem tenho eu além de ti
          C          A       D     D/F#
És minha vida, és a fonte Jesus

[Refrão]

   G D/F#   A A4 A  C
Jesus,   Jesus
   Bm7    A A4 A
Jesus, Jesus

[Solo] G9  D/F#  A  A4  A

             C9  D  E  E4  E
E|------------------------------------------5/7-5------------8--------8-10/12|
B|------------3-3---3/5-3-------------2h3/5------5/7-5-10-12---8---10--------|
G|--------0-4-----4-------2-2-----2h4----------------------------9-----------|
D|----0h2---------------------2h4--------------------------------------------|
A|-0h2-----------------------------------------------------------------------|
E|---------------------------------------------------------------------------|

E|-10-------10-12----10-----------------------------|
B|----10-12-------12----12-10-----------------------|
G|----------------------------11-11/13-9/11-9-------|
D|--------------------------------------------9/11-9|
A|--------------------------------------------------|
E|--------------------------------------------------|

        B4  B          E4 E
Seja o centro, seja o tudo
   E   F#m7 E/G# A    C#m7  B9
Em meu  cora-ção, Se|---nhor
        F#m7        E4 E
Seja a vida em meu peito
 E F#m7 E/G#  A     C#m7 B9
Cada   dia aqui e eternamente

[Refrão]

   A9  E/G#   B B4   B
Jesus,       Jesus
   D   C#m7   B B4   B
Jesus,       Jesus

[Final] E9
Acordes para:

    0 comentários

      mostrar mais comentários

      Conseguiu tocar?

      15tocaram0ainda não

      Grave um vídeo tocando Seja o Centro e mande pra gente!

      00:00 / 00:00
      outros vídeos desta música
      repetirqualidadeAutomático
      Outro vídeos desta música
        00:00 / 00:00
        OK