Cifra Club

Nada Por

DiaZepunK

Cifra: Principal (violão e guitarra)
tom: C
C5*
El Tiempo Que ha pasado ya
A5
ha sido suficiente
C5*                           A5
para a aprender a no insistir

C5*
Yo no te pretendo juzgar
A5
mo pretendaz juzgarme
C5*                            A5
ahora que solo pienso en partir

G5
no intentes cambiarlo todo
F5
sabias que acabaria asi

C5             C5
no histe nada por
F5
nada por nosotros nos
C5             C5
no histe nada por
F5
nada por nosotros nos

E|---------------------------------------------------------------|
B|---------------------------------------------------------------|
G|-9-9-9-9-9-9-9-9-9-9-9-9-9-9-9-5-5-5-5-5-5-5-5-5-5-5-5-5-5-5-5-|
D|-x-x-x-x-x-x-x-x-x-x-x-x-x-x-x-x-x-x-x-x-x-x-x-x-x-x-x-x-x-x-x-|
A|-7-7-7-7-7-7-7-7-7-7-7-7-7-7-7-3-3-3-3-3-3-3-3-3-3-3-3-3-3-3-3-|
E|---------------------------------------------------------------|

C5
tambien la estoy pasando mal
A5
no fue mi intencion lastimarte
C5                     A5
pero yo no se vivir asi
C5
Mi tiempo con tranquilidad
A5
Me esneño a no perder mas tiempo
C5                                             A5
lo siento pero estas son mis ultimas horas aqui

G5
no intentes cambiarlo todo
F5
sabias que acabaria asi

C5             C5
no histe nada por
F5
nada por nosotros nos
C5             C5
no histe nada por
F5
nada por nosotros nos

E|---------------------------------------------------------------|
B|---------------------------------------------------------------|
G|-9-9-9-9-9-9-9-9-9-9-9-9-9-9-9-5-5-5-5-5-5-5-5-5-5-5-5-5-5-5-5-|
D|-x-x-x-x-x-x-x-x-x-x-x-x-x-x-x-x-x-x-x-x-x-x-x-x-x-x-x-x-x-x-x-|
A|-7-7-7-7-7-7-7-7-7-7-7-7-7-7-7-3-3-3-3-3-3-3-3-3-3-3-3-3-3-3-3-|
E|---------------------------------------------------------------|

G5
no intentes cambiarlo todo
F5
sabias que acabaria asi

C5             C5
no histe nada por
F5
nada por nosotros nos
C5             C5
no histe nada por
F5
nada por nosotros nos


E|----------------------------------------------------------------------|


NOTA :

    C5*
E|---------|
B|---------|
G|---------|
D|--10-----|
A|--10-----|
E|---8-----|

E|----------------------------------------------------------------------|
Composição de Diazepa
1 exibições
    • ½ Tom
    • A
    • Bb
    • B
    • C
    • Db
    • D
    • Eb
    • E
    • F
    • F#
    • G
    • Ab
  • Adicionar à lista

    0 comentários

    Ver todos os comentários

    Conseguiu tocar?

    0 Tocaram 0 Ainda não

    Grave um vídeo tocando Nada Por e nos envie!

    00:00 / 00:00
    Outros vídeos desta música
    Repetir Qualidade Automático
    Outros vídeos desta música
    00:00 / 00:00
    Automático

    Cifra Club Pro

    Aproveite o Cifra Club com benefícios exclusivos e sem anúncios
    Cifra Club Pro
    Aproveite o Cifra Club com benefícios exclusivos e sem anúncios
    OK