Cifra Club

Nid

DiaZepunK

Cifra: Principal (violão e guitarra)
tom: Em
E|----------------------------------------------------------------------|
B|-3-3-3-3-3-3--5-3-5--3-3-3-3-3-3--5-3-5--1-1-1-1-1-1---3h5p3-----4--3-|
G|-4-4-4-4-4-4--4-4-4--4-4-4-4-4-4--4-4-4--3-3-3-3-3-3--------5p4--5--4-|
D|-5-5-5-5-5-5--5-5-5--3-3-3-3-3-3--3-3-3--2-2-2-2-2-2-------------4--3-|
A|----------------------------------------------------------------------|
E|----------------------------------------------------------------------|

[x2]

[Verso]

Em      D5         C5
sabias que a veces yo
Em      D5         C5
en tus ojos no veo brillar
Em          D5           C5
busco una cerveza entre los recuerdos
G5               C5 B5
donde alguna vez
Em   C5    G5            D5
tu y yo pasamos algún tiempo juntos

[Coro]

E5        D5            C5
Nunca sabre bien que decir sin ti nada tiene sentido
E|-----------------------------------------------|
B|-----------------------------------------------|
G|--9---11------------12-------------------------|
D|--9---11------------12-------------------------|
A|--7----9------------10-------------------------|
E|-----------------------------------------------|
E5        D5            C5        C5
solo yo estoy si tu no estas ... eres mi única necesidad
E|-----------------------------------------------|
B|-----------------------------------------------|
G|--9---11------------12-------------------------|
D|--9---11------------12-------------------------|
A|--7----9------------10-------------------------|
E|-----------------------------------------------|
[Verso]

Em      D5           C5
Todo el tiempo eres especial
Em      D5         C5
Yo un tonto y nada mas.
Em            D5            C5
Capaz solo de sonreír si tu sonrisa
G5                       C5 B5
logra como el sol brillar
Em    C5   G5            D5                Em
tu y yo una cerveza y dejando al tiempo pasar
 G5     B5 D5     C5   D5    G5      [1]
lo siento    kisas no debi decirlo

[Coro]

E5        D5            C5
Nunca sabre bien que decir sin ti nada tiene sentido
E|-----------------------------------------------|
B|-----------------------------------------------|
G|--9---11------------12-------------------------|
D|--9---11------------12-------------------------|
A|--7----9------------10-------------------------|
E|-----------------------------------------------|

E5        D5            C5        C5
solo yo estoy si tu no estas ... eres mi única necesidad
E|--------------------------------------------------|
B|--------------------------------------------------|
G|--9---11------------12--------12---------------|
D|--9---11------------12--------12---------------|
A|--7----9------------10--------10---------------|
E|--------------------------------------------------|

[Intro]

E|----------------------------------------------------------------------|
B|-3-3-3-3-3-3--5-3-3--3-3-3-3-3-3--5-3-3--1-1-1-1-1-1---3h5p3-----4--3-|
G|-4-4-4-4-4-4--4-4-4--4-4-4-4-4-4--4-4-4--3-3-3-3-3-3--------5p4--5--4-|
D|-5-5-5-5-5-5--5-5-5--3-3-3-3-3-3--3-3-3--2-2-2-2-2-2-------------4--3-|
A|----------------------------------------------------------------------|
E|----------------------------------------------------------------------|

[Interdulio]

   E5     D5    C5
E|---------------------|
B|---------------------|
G|--9---11----12-------| [x2]
D|--9---11----12-------|
A|--7----9----10-------|
E|---------------------|

E|--------------------------------------------|
B|--------------------------------------------|
G|--------------------------------------------|
D|-5-4------5-7-5----5-4--5-4-2----5-4-2----2-|
A|-----5--5--------5------------5--------5----|
E|--------------------------------------------|

E|--------------------------------------------|
B|--------------------------------------------|
G|--------------------------------------------|
D|-2-5-4------5-7--5-4---5-4-5--5/7-5-4-5-4---|
A|-------5--5----------5--------------------5-|
E|--------------------------------------------|




[Solo]

E|-----------------------------------------------------|
B|-8v-7v----------------8-7-8------8-10-12v--8-10-12v--|
G|-------7v-----7--------------------------------------|
D|-----------7-9---------------------------------------|
A|-----------------------------------------------------|
E|-----------------------------------------------------|

E|------------------------|
B|-15-14-15-13-15-14--15--|
G|------------------------|
D|------------------------|
A|------------------------|
E|------------------------|

[Coro]

E5        D5            C5
Nunca sabre bien que decir sin ti nada tiene sentido
E|-----------------------------------------------|
B|-----------------------------------------------|
G|--9---11------------12-------------------------|
D|--9---11------------12-------------------------|
A|--7----9------------10-------------------------|
E|-----------------------------------------------|

E5        D5            C5        C5
solo yo estoy si tu no estas ... no lo notaste
E|--------------------------------------------------|
B|--------------------------------------------------|
G|--9*---11*------------12*--------12---------------|
D|--x*----x*-------------x*---------x---------------|
A|--7*----9*------------10*--------10---------------|
E|--------------------------------------------------|

E|----------------------------------------------------------------------|

v = Vibrato
b = Bend
h = Hammer
p = Pull of

      [1]
E|---------------|
B|---------------|
G|-7---------9bv-|
D|---10-9-10-----|
A|---------------|
E|---------------|
Composição de Diazepunk
10 exibições
    • ½ Tom
    • Am
    • Bbm
    • Bm
    • Cm
    • C#m
    • Dm
    • Ebm
    • Em
    • Fm
    • F#m
    • Gm
    • G#m
  • Adicionar à lista

    0 comentários

    Ver todos os comentários

    Conseguiu tocar?

    0 Tocaram 0 Ainda não

    Grave um vídeo tocando Nid e nos envie!

    00:00 / 00:00
    Outros vídeos desta música
    Repetir Qualidade Automático
    Outros vídeos desta música
    00:00 / 00:00
    Automático

    Cifra Club Pro

    Aproveite o Cifra Club com benefícios exclusivos e sem anúncios
    Cifra Club Pro
    Aproveite o Cifra Club com benefícios exclusivos e sem anúncios
    OK