Cifra Club

No pertenezco

DiaZepunK

Cifra: Principal (violão e guitarra)
tom: E
E5 G5 A5 B5
E|------------------------------------|
B|-9-12-10-9---12-10-9-----12-10-9-12-| (x2)
G|----------9----------11-------------|
D|------------------------------------|
A|------------------------------------|
E|------------------------------------|


E5
Sábado a las diez,
    G5
solo entre tantos rostros,
      A5
golpeado por el invierno
      B5
entre luces que no arden.
E5                        G5
Miradas de desprecio hoy se ha fijado en mi,
           A5
nunca creí ser especial,
         B5
sólo intentaba respirar.

D5                           G5
La verdad no me importa cuanto puedas tener,
B5                         A5
la gracia de tu status social.
D5                       G5
Religiones y razas ¿cuanto crees valer?
       B5                   A5
Espero no volverme a equivocar.
                   D5
Pues no estoy dispuesto
                 G5                       A5
a escucharte hablar de cosas que en realidad no
B5
no valen nada.
 D5                 G5
Aunque quisiera volver,
                A5
no logras entender
                  B5
que a este lugar yo
B5
no pertenezco.

E5 G5 A5 B5
E|------------------------------------|
B|-9-12-10-9---12-10-9-----12-10-9-12-| (x2)
G|----------9----------11-------------|
D|------------------------------------|
A|------------------------------------|
E|------------------------------------|

E5
Sábado otra vez
   G5
solo entre los mismos rostros
     A5
oyendo a tus amigos yupis
           B5
hablar de sus apellidos,
E5                     G5
tanta elegancia no te logra hacer feliz,
      A5                               B5
su mayor temor es llegar a parecerse a mí.
D5                         G5
Vivo tranquilo sin tantas cosas que cargar,
B5                    A5
no por ello soy especial.
D5                       G5
Soy diferente pues yo decido como actuar,
      B5
para ser feliz
        A5
no necesito aparentar.
 D5                             G5
Pues no estoy dispuesto a regresar
                A5
a tus marcas y poses
                B5
que en realidad no, no valen nada.
 D5                 G5
Aunque quisiera volver
                A5
no logras entender
                 B5
que a ese lugar yo
B5
no pertenezco.

E5 G5 A5 B5
E|------------------------------------|
B|-9-12-10-9---12-10-9-----12-10-9-12-| (x2)
G|----------9----------11-------------|
D|------------------------------------|
A|------------------------------------|
E|------------------------------------|

D5 G5 B5 A5
E|--------------------------------------|
B|-8-7-----8-7-----8-7--8-7--8-7--8-7---|
G|----7-------7-------7----7----7----7--|
D|--------------------------------------|
A|--------------------------------------|
E|--------------------------------------|

D5 G5 B5 A5
E|------------------------------------------------------------|
B|-13-12-----13-12-13-15--13-12-13-15-13-12-13-15-13-12-13/15-|
G|------12----------------------------------------------------|
D|------------------------------------------------------------|
A|------------------------------------------------------------|
E|------------------------------------------------------------|




D5                   G5
Al fin amanece y me logro entretener,
       B5                   A5
con quien me puedo alcoholizar.
D5                 G5
Mis amigos brindan al verme volver
     B5                 A5
y se abre otra botella más.
                        D5             G5
No les interesa juzgarme por ser quien soy,
           A5
ni a donde voy,
             B5
que traigo puesto,
B5
que comí hoy,
  D5                     G5
ni como diablos llegue aquí
           A5              B5
desde ese lugar a donde yo no

no pertenezco.

E5 G5 A5 B5
E|------------------------------------|
B|-9-12-10-9---12-10-9-----12-10-9-12-| (x2)
G|----------9----------11-------------|
D|------------------------------------|
A|------------------------------------|
E|------------------------------------|

kreo ke esta todo correcto, y sino no jodan px!!!!
no he sakado la ultima parte... ya sakenla ustds ps...
no jodan!...
Gaby, eres mi razon...
Composição de Diazepunk
    • ½ Tom
    • A
    • Bb
    • B
    • C
    • Db
    • D
    • Eb
    • E
    • F
    • F#
    • G
    • Ab
  • Adicionar à lista

    0 comentários

    Ver todos os comentários

    Conseguiu tocar?

    0 Tocaram 0 Ainda não

    Grave um vídeo tocando No pertenezco e nos envie!

    00:00 / 00:00
    Outros vídeos desta música
    Repetir Qualidade Automático
    Outros vídeos desta música
    00:00 / 00:00
    Automático

    Cifra Club Pro

    Aproveite o Cifra Club com benefícios exclusivos e sem anúncios
    Cifra Club Pro
    Aproveite o Cifra Club com benefícios exclusivos e sem anúncios
    OK