Cifra Club

Pam

DiaZepunK

Cifra: Principal (violão e guitarra)
tom: Em

Nota:
 D5  C5  E5
E|---|---|---|
B|---|---|---|
G|-7-|-5-|-9-|
D|-7-|-5-|-9-|
A|-5-|-3-|-7-|
E|---|---|---|


Intro:

E|-----------------------|-----------------------|
B|-----------------------|-----------------------|
G|---7---5---7---5---5-4-|---7---5---7---5---5-0-|
D|-55--55--55--55--55----|-55--55--55--55--55----|
A|-----------------------|-----------------------|
E|-----------------------|-----------------------|

E|-----------------------|-----------------------|
B|-----------------------|-----------------------|
G|-----------------------|-----------------------|
D|---5---5---3---3---3---|---5---5---7---7---7---|
A|-55--55--33--33--33-3--|-55--55--55--55--55----|
E|-----------------------|-----------------------|

(Repetir Intro)

E|---------------------------------------|
B|-7777777-5555555-7777777-5555555-------|
G|-7777777-7777777-7777777-7777777-------|
D|-5555555-5555555-5555555-5555555-------|
A|---------------------------------------|
E|---------------------------------------|

E|-----------------------|
B|-----------------------|
G|-77777-5--55555-9------|
D|-77777-5--55555-9------|
A|-55555-3--55555-7------|
E|-----------------------|

E|---------------------------------------|
B|-7777777-5555555-7777777-5555555-------|
G|-7777777-7777777-7777777-7777777-------|
D|-5555555-5555555-5555555-5555555-------|
A|---------------------------------------|
E|---------------------------------------|

E|-----------------------|
B|-----------------------|
G|-77777-5--55555-9------|
D|-77777-5--55555-9------|
A|-55555-3--55555-7------|
E|-----------------------|

E|-------------------|
B|-777-555-7---------|
G|-777-777-7---------|
D|-555-555-5---------|
A|-------------------|
E|-------------------|

 D5         C5           E5          D5
Ella guarda un secreto entre pedasos de papel
 D5           C5              E5          D5
Que la hacen sentirse fuerte al enfrentar estar sola
 D5                C5       D5             C5
depronto es la mujer ideal nada la puede detener
 D5                       C5                 E5
asi que coge sus cosas y sale dispuesta a demostrar
        D5
de lo que esta hecha
 E5               D5                       C5
aunque se sienta sola finge que todo esta bien
 D5
le es dificil aceptar que quizas nunca encontrara
 E5                     D5                   C5
La felicidad que por siempre pueda hacerla olvidar
       D5
 la tristeza y la soledad

E|---------|-------|
B|-7-5-7-5-|-7-5-7-|
G|-7-7-7-7-|-7-7-7-|
D|-5-5-5-5-|-5-5-5-|
A|---------|-------|
E|---------|-------|

 D5               C5         E5           D5
Ella es la niña hermosa que papa no vio crecer
 D5           C5           E5     D5
la que mama siempre evito criar
 D5                 C5     D5                  C5
El sueño bajo el reflector el poster sobre la pared
 D5                     C5            E5            D5
El hermoso rostro que creiste incapaz de llorar, tristeza
  E5               D5                       C5
aunque se sienta sola finge que todo esta bien
 D5
le es dificil aceptar que quizas nunca encontrara
 E5                     D5                   C5
La felicidad que por siempre pueda hacerla olvidar
       D5
 la tristeza y la soledad

(A  BG UIENTE PARTE SE TOCA CON UN CIRCULO DE E+ D+ C+)
los mismos que ellos tu y yo sentimos en cada paso al caminar
y que nos hacen a todos igual toma entonces mi mano y ven
yo le estoy buscando tambien una salida a este lugar
NA NA NA NA NA NA NA NA NA NA oOoO!
NA NA NA NA NA NA NA NA NA NA OiOiOiO!
NA NA NA NA NA NA NA NA NA NA OoO!
NA NA NA NA NA NA NA OOOOOOOOOOOOOOOOO!

E|---------------------------------------|
B|-7777777-5555555-7777777-5555555-------|
G|-7777777-7777777-7777777-7777777-------|
D|-5555555-5555555-5555555-5555555-------|
A|---------------------------------------|
E|---------------------------------------|

NADA CAMBIO!!!

E|-----------------------|
B|-----------------------|
G|-77777-5--55555-9------|
D|-77777-5--55555-9------|
A|-55555-3--55555-7------|
E|-----------------------|

E|---------------------------------------|
B|-7777777-5555555-7777777-5555555-------|
G|-7777777-7777777-7777777-7777777-------|
D|-5555555-5555555-5555555-5555555-------|
A|---------------------------------------|
E|---------------------------------------|

  NI ALGO MEJOR!!!

E|-----------------------|
B|-----------------------|
G|-77777-5--55555-9------|
D|-77777-5--55555-9------|
A|-55555-3--55555-7------|
E|-----------------------|


 E5               D5                       C5
aunque se sienta sola finge que todo esta bien
 D5
le es dificil aceptar que quizas nunca encontrara
 E5                     D5                   C5
La felicidad que por siempre pueda hacerla olvidar
       D5
 la tristeza y la soledad


G  O:

E|----------------------------------------|
B|-8-6-8-6---6-7-8-8^---6-7-8-9--9^--10^--|
G|----------8-----------8-----------------|
D|----------------------------------------|
A|----------------------------------------|
E|----------------------------------------|

E|---------------|----8-9----------|
B|-8~-7-8-10-10^-|-10^---10^--8~~~-|
G|---------------|-----------------|
D|---------------|-----------------|
A|---------------|-----------------|
E|---------------|-----------------|
Composição de Diazepunk
    • ½ Tom
    • Am
    • Bbm
    • Bm
    • Cm
    • C#m
    • Dm
    • Ebm
    • Em
    • Fm
    • F#m
    • Gm
    • G#m
  • Adicionar à lista

    0 comentários

    Ver todos os comentários

    Conseguiu tocar?

    0 Tocaram 0 Ainda não

    Grave um vídeo tocando Pam e nos envie!

    00:00 / 00:00
    Outros vídeos desta música
    Repetir Qualidade Automático
    Outros vídeos desta música
    00:00 / 00:00
    Automático

    Cifra Club Pro

    Aproveite o Cifra Club com benefícios exclusivos e sem anúncios
    Cifra Club Pro
    Aproveite o Cifra Club com benefícios exclusivos e sem anúncios
    OK