Notificações Amigos pendentes

      Dick Dale

      Misirlou

      86.974 exibições
      Tom: C
      h --> hammer-on (and, sometimes, play in same beat)
      p --> pull-off (aka hammer-off) (and, sometimes, play in same beat)s --> slide
      # --> rest= --> hold note a beat1pick --> singlepick2pick --> doublepick
      "hu!"; "haa!" --> various shoutsTempo:  Presto con huevos!
      (Doublepick all guitar passages unless otherwise indicated.)
      
      E|---------|---------|---------|
      B|---------|---------|---------|
      G|---------|---------|---------|
      D|---------|---------|---------|
      A|---------|---------|---------|
      E|-#-#-7s0-|-0-0-0-0-|-0-0-0-0-|
      
                   "hu!" "hu!"  "haa!"
      
      E|-----------|------------|---------|--------|
      B|-----------|------------|---------|--------|
      G|-----------|------------|---------|--------|
      D|-----------|------------|---------|--------|
      A|-----------|------------|---------|--------|
      E|-0-0h1-4-5-|-7-7h8-11-8-|-7-7-7-7-|7-7-s-0-|
      
      
      E|-----------|------------|---------|---------|
      B|-----------|------------|---------|---------|
      G|-----------|------------|---------|---------|
      D|-----------|------------|---------|---------|
      A|-----------|------------|---------|---------|
      E|-0-0h1-4-5-|-7-7h8-11-8-|-7-7-7-7-|-7-7-7-7-|
      
      
      E|-----------|-----------|---------|---------|
      B|-----------|-----------|---------|---------|
      G|-----------|-----------|---------|---------|
      D|-----------|-----------|---------|---------|
      A|-----------|-----------|---------|---------|
      E|-8-7h8-7-5-|-7-5h7-5-1-|-4-4-4-4-|-4-4-4-4-|                           1pick
      
      
      E|-------------|-----------|---------|-7sssss0-|
      B|-------------|-----------|---------|---------|
      G|-------------|-----------|---------|---------|
      D|-------------|-----------|---------|---------|
      A|-------------|-----------|---------|---------|
      E|-5h8-7h8-7-5-|-7-5h7-5-#-|-1-4-0-0-|---------|
      
      
      E|-0-0h1-4-5-|-7-7h8-11-8-|-7-7-7-7-|7-7-7s0-|
      B|-----------|------------|---------|--------|
      G|-----------|------------|---------|--------|
      D|-----------|------------|---------|--------|
      A|-----------|------------|---------|--------|
      E|-----------|------------|---------|--------|
      
      
      E|0-0h1-4-5-|-7-7h8-11-8-|-7-7-7-7-|-7-7-7-7-|
      B|----------|------------|---------|---------|
      G|----------|------------|---------|---------|
      D|----------|------------|---------|---------|
      A|----------|------------|---------|---------|
      E|----------|------------|---------|---------|
      
      
      E|-8-7h8-7-5-|-7-5h7-5-1-|-4-4-4-4-|-4-4-4-4-|
      B|-----------|-----------|---------|---------|
      G|-----------|-----------|---------|---------|
      D|-----------|-----------|---------|---------|
      A|-----------|-----------|---------|---------|
      E|-----------|-----------|---------|---------|
      
                               singlepick
      
      E|-8-7h8-7-5-|-7-5h7-5-#-|-1-4-0-0-|
      B|-----------|-----------|-------0-|
      G|-----------|-----------|---------|
      D|-----------|-----------|---------|
      A|-----------|-----------|---------|
      E|-----------|-----------|---------|
      
        trumpet solo (2pick all, or 1pick vibrato & 2pick trills):
      
      E|-----------------|-----|----------|-----|---------|---------|
      B|-----------------|-----|----------|-----|---------|---------|
      G|-----------------|-----|----------|-----|---------|---------|
      D|-----------------|-----|----------|-----|---------|---------|
      A|-----------------|-0===|==------0-|-2===|==-#-0h2-|-3==-2h3-|
      E|-#-0-1-4-5-0-1-4-|-----|---55p4---|-----|---------|---------|
      
      
      E|-------|-----|-----|---------------|-----------------|-----|
      B|-------|-----|-----|---------------|-----------------|-----|
      G|-------|-----|-----|---------------|-----------------|-----|
      D|-------|-----|-----|---------------|-----------------|-----|
      A|-6==-6-|-7===|====-|-#-8p7h8-777-5-|-777-7p5h7-555-3-|-2===|
      E|-------|-----|-----|---------------|-----------------|-----|
      
      
      E|-----|--------------|---------|-------|-----------------|
      B|-----|--------------|---------|-------|-----------------|
      G|-----|--------------|---------|-------|-----------------|
      D|-----|--------------|---------|-------|-----------------|
      A|2===-|#-5p3h5-333-2-|-2-0-2-0-|-------|---------------0-|
      E|-----|--------------|---------|-1-0==-|-0-1-4-5-0-1-4---|
      
      Guitar, basically repeating the trumpet passage, here tabbed
      to indicate doublepicking:                                  hu!hu!          hu!
      
      E|---------|-----------|---------|-----------|-----------|
      B|---------|-----------|---------|-----------|-----------|
      G|---------|-----------|---------|-----------|-----------|
      D|---------|-----------|---------|-----------|-----------|
      A|-0-0-0-0-|-0-0-0-----|-2-2-2-2-|-2-2-2-0h2-|-3-3-3-2h3-|
      E|---------|-------4h5-|---------|-----------|-----------|   hu!
      
      
      E|-----------|---------|---------|-----------|-----------|---------|
      B|-----------|---------|---------|-----------|-----------|---------|
      G|-----------|---------|---------|-----------|-----------|---------|
      D|-----------|---------|---------|-----------|-----------|---------|
      A|-6-6-3h6-6-|-7-7-7-7-|-7-7-7-7-|-8-7h8-7-5-|-7-5h7-5-3-|-2-2-2-2-|
      E|-----------|---------|---------|-----------|-----------|---------|
      
                                  1pick      piano enters
      
      E|---------|-------------|---------|---------|---------|
      B|---------|-------------|---------|---------|---------|
      G|---------|-------------|---------|---------|---------|
      D|---------|-------------|---------|---------|---------|
      A|-2-2-2-2-|-5-3h5-3-2p0-|-#-0-2-0-|---------|---------|
      E|---------|-------------|---------|-1-0-0-0-|-0-0-0-0-|
      
      (Piano trills continue for 3 measures)
      (base and rhythm continue for 3 more measures)
      Repeat high E-string guitar passage, with piano embellishments.

      Comentários 9

      140 .
      • Pedro H. Bonatto Pedro H. Bonatto: Em 12/09/2015 15:18

        qualquer semelhança com pump it é pura coincidencia

        • corega corega: Em 12/10/2015 00:29

          misirlou é uma música muito antiga, ela é usada em pump it..

      • Bruno Bruno: Em 13/08/2013 15:25

        musica foda

      • ja0 ja0: Em 23/06/2012 20:26

        musica muito boa além de facil

      • metaldo666 metaldo666: Em 10/06/2012 12:58

        é da hora tirar o solo normal e quando ja tivé com o som foda ir acrecentando slides

      • israelguia israelguia: Em 07/05/2012 22:36

        essa é facil só usa a mizona e a mizinha

      • metaldo666 metaldo666: Em 08/04/2012 10:53

        é muito foda

      • felipeh10 felipeh10: Em 18/11/2011 23:23

        õ/

      • Mik Mik: Em 25/03/2011 17:31

        ok..... vamos tentar tocar né (as notas são fáceis, mas a velocidade é que deve matar)

      140 cancelar
      0:00 / 0:00

      Capítulos

        2 versões de violão dificuldade exibições contribuição e correção
        2 versões de guitarra dificuldade exibições contribuição e correção
        2 versões de cavaco dificuldade exibições contribuição e correção
        2 versões de teclado dificuldade exibições contribuição e correção
        1 versão de gaita exibições contribuição e correção
        play/pausefechar subir/descer velocidade
        6ª corda E5ª corda A4ª corda D3ª corda G2ª corda B1ª corda E
          acordes
          publicidade
          fechar
          ok