Cifra Club

Misirlou

Dick Dale

Cifra: Principal
exibições 104.286
Tom: C
h --> hammer-on (and, sometimes, play in same beat)
p --> pull-off (aka hammer-off) (and, sometimes, play in same beat)s --> slide
# --> rest= --> hold note a beat1pick --> singlepick2pick --> doublepick
"hu!"; "haa!" --> various shoutsTempo:  Presto con huevos!
(Doublepick all guitar passages unless otherwise indicated.)
E|---------|---------|---------|
B|---------|---------|---------|
G|---------|---------|---------|
D|---------|---------|---------|
A|---------|---------|---------|
E|-#-#-7s0-|-0-0-0-0-|-0-0-0-0-|
             "hu!" "hu!"  "haa!"
E|-----------|------------|---------|--------|
B|-----------|------------|---------|--------|
G|-----------|------------|---------|--------|
D|-----------|------------|---------|--------|
A|-----------|------------|---------|--------|
E|-0-0h1-4-5-|-7-7h8-11-8-|-7-7-7-7-|7-7-s-0-|

E|-----------|------------|---------|---------|
B|-----------|------------|---------|---------|
G|-----------|------------|---------|---------|
D|-----------|------------|---------|---------|
A|-----------|------------|---------|---------|
E|-0-0h1-4-5-|-7-7h8-11-8-|-7-7-7-7-|-7-7-7-7-|

E|-----------|-----------|---------|---------|
B|-----------|-----------|---------|---------|
G|-----------|-----------|---------|---------|
D|-----------|-----------|---------|---------|
A|-----------|-----------|---------|---------|
E|-8-7h8-7-5-|-7-5h7-5-1-|-4-4-4-4-|-4-4-4-4-|                           1pick

E|-------------|-----------|---------|-7sssss0-|
B|-------------|-----------|---------|---------|
G|-------------|-----------|---------|---------|
D|-------------|-----------|---------|---------|
A|-------------|-----------|---------|---------|
E|-5h8-7h8-7-5-|-7-5h7-5-#-|-1-4-0-0-|---------|

E|-0-0h1-4-5-|-7-7h8-11-8-|-7-7-7-7-|7-7-7s0-|
B|-----------|------------|---------|--------|
G|-----------|------------|---------|--------|
D|-----------|------------|---------|--------|
A|-----------|------------|---------|--------|
E|-----------|------------|---------|--------|

E|0-0h1-4-5-|-7-7h8-11-8-|-7-7-7-7-|-7-7-7-7-|
B|----------|------------|---------|---------|
G|----------|------------|---------|---------|
D|----------|------------|---------|---------|
A|----------|------------|---------|---------|
E|----------|------------|---------|---------|

E|-8-7h8-7-5-|-7-5h7-5-1-|-4-4-4-4-|-4-4-4-4-|
B|-----------|-----------|---------|---------|
G|-----------|-----------|---------|---------|
D|-----------|-----------|---------|---------|
A|-----------|-----------|---------|---------|
E|-----------|-----------|---------|---------|
                         singlepick
E|-8-7h8-7-5-|-7-5h7-5-#-|-1-4-0-0-|
B|-----------|-----------|-------0-|
G|-----------|-----------|---------|
D|-----------|-----------|---------|
A|-----------|-----------|---------|
E|-----------|-----------|---------|
  trumpet solo (2pick all, or 1pick vibrato & 2pick trills):
E|-----------------|-----|----------|-----|---------|---------|
B|-----------------|-----|----------|-----|---------|---------|
G|-----------------|-----|----------|-----|---------|---------|
D|-----------------|-----|----------|-----|---------|---------|
A|-----------------|-0===|==------0-|-2===|==-#-0h2-|-3==-2h3-|
E|-#-0-1-4-5-0-1-4-|-----|---55p4---|-----|---------|---------|

E|-------|-----|-----|---------------|-----------------|-----|
B|-------|-----|-----|---------------|-----------------|-----|
G|-------|-----|-----|---------------|-----------------|-----|
D|-------|-----|-----|---------------|-----------------|-----|
A|-6==-6-|-7===|====-|-#-8p7h8-777-5-|-777-7p5h7-555-3-|-2===|
E|-------|-----|-----|---------------|-----------------|-----|

E|-----|--------------|---------|-------|-----------------|
B|-----|--------------|---------|-------|-----------------|
G|-----|--------------|---------|-------|-----------------|
D|-----|--------------|---------|-------|-----------------|
A|2===-|#-5p3h5-333-2-|-2-0-2-0-|-------|---------------0-|
E|-----|--------------|---------|-1-0==-|-0-1-4-5-0-1-4---|
Guitar, basically repeating the trumpet passage, here tabbed
to indicate doublepicking:                                  hu!hu!          hu!
E|---------|-----------|---------|-----------|-----------|
B|---------|-----------|---------|-----------|-----------|
G|---------|-----------|---------|-----------|-----------|
D|---------|-----------|---------|-----------|-----------|
A|-0-0-0-0-|-0-0-0-----|-2-2-2-2-|-2-2-2-0h2-|-3-3-3-2h3-|
E|---------|-------4h5-|---------|-----------|-----------|   hu!

E|-----------|---------|---------|-----------|-----------|---------|
B|-----------|---------|---------|-----------|-----------|---------|
G|-----------|---------|---------|-----------|-----------|---------|
D|-----------|---------|---------|-----------|-----------|---------|
A|-6-6-3h6-6-|-7-7-7-7-|-7-7-7-7-|-8-7h8-7-5-|-7-5h7-5-3-|-2-2-2-2-|
E|-----------|---------|---------|-----------|-----------|---------|
                            1pick      piano enters
E|---------|-------------|---------|---------|---------|
B|---------|-------------|---------|---------|---------|
G|---------|-------------|---------|---------|---------|
D|---------|-------------|---------|---------|---------|
A|-2-2-2-2-|-5-3h5-3-2p0-|-#-0-2-0-|---------|---------|
E|---------|-------------|---------|-1-0-0-0-|-0-0-0-0-|
(Piano trills continue for 3 measures)
(base and rhythm continue for 3 more measures)
Repeat high E-string guitar passage, with piano embellishments.
Acordes para:

    0 comentários

      mostrar mais comentários

      Conseguiu tocar?

      17tocaram2ainda não

      Grave um vídeo tocando Misirlou e mande pra gente!

      00:00 / 00:00
      outros vídeos desta música
      repetirqualidadeautomática
      Outro vídeos desta música
        00:00 / 00:00
        automática
        OK