Cifra Club

Perdido en tí

Diego González

Cifra: Principal (violão e guitarra)
tom: C
Intro_

(también se toca en todos los versos)

E|-------------------------------------|
B|--------1------0------1------3-------|
G|-------------------------------------| x2
D|-------------------------------------|
A|----3------3------3------3-----------|
E|-------------------------------------|

E|-------------------------------------|
B|--------1------0------1------3-------|
G|-------------------------------------| x2
D|-------------------------------------|
A|----0-0-0----0------0------0---------|
E|-------------------------------------|

E|-------------------------------------|
B|--------1------0------1------3-------|
G|-------------------------------------| x2
D|-------------------------------------|
A|----3------3------3------3-----------|
E|-------------------------------------|

E|-------------------------------------|
B|--------1------0------1------3-------|
G|-------------------------------------| x2
D|-------------------------------------|
A|----0-0-0----0------0------0---------|
E|-------------------------------------|

E|-------------------------------------|
B|--------5------3------1------3-------|
G|-------------------------------------| x1
D|-------------------------------------|
A|----0------0------0------0-----------|
E|-------------------------------------|

Acordes:

C
Mirame ya no se ni quien soy
Am
Persiguiéndote no se a donde voy
F
Se me perdió
G
hasta la identidad

C
Es por ti que yo he cambiado hasta de piel
Am
Todo este amor es la razón de mi fe
F
No puedo más,  Quiero gritar
G5
Escúchame aunque sea por esta vez

Coro:

C5
A donde tu vas te sigo
A5
Solo por ti yo vivo
      F5
Eres mi obsesión eres mi obsesión
G5
Es por amor
Que estoy perdido en ti

Intro_

E|-------------------------------------|
B|--------1------0------1------3-------|
G|-------------------------------------|
D|-------------------------------------|
A|----3------3------3------3-----------|
E|-------------------------------------|

E|-------------------------------------|
B|--------1------0------1--------------|
G|-------------------------------------|
D|-------------------------------------|
A|----3------3------3------------------|
E|-------------------------------------|

C
Tú tienes el control a todo mi interior
Am
Extraño hasta el silencio que existe en tu voz
F
Seguir así, no tiene fin
G5
No puedo más escúchame esta vez

Estos son los pequeños punteos del segundo verso:

E|------3~------------3h4h3--------------|
B|----------------------------1---3------|
G|---------------------------------------|
D|---------------------------------------|
A|---------------------------------------|
E|---------------------------------------|

E|-------3h4h3---------------------------|
B|-----------------1---5---------1h3-----|
G|---------------------------------------|
D|---------------------------------------|
A|---------------------------------------|
E|---------------------------------------|

Coro  x2:

C5
A donde tu vas te sigo
A5
Solo por ti yo vivo
F5
Eres mi obsesión eres mi obsesión
G5
Es por amor
Que estoy perdido…


F5
Yo no tengo una razón
C5
No se que hacer sin ti
A5
Me siento frágil se me rompe
G5
la ilusión
F5
Sobrevivo en tu prisión
C5
Es ilógico morir
A5
En la intención de conseguir
G5
tu amor



Coro: Arpegio
C5
A donde tu vas te sigo
A5
Solo por ti yo vivo
F5
Eres la obsesión de mi corazón
G5
Eres mi obsesión
C5
A donde tu vas te sigo
A5
Solo por ti yo vivo
F5
Eres mi obsesión eres mi obsesión
G5
Es por amor Que estoy perdido

C5
A donde tu vas te sigo
A5
Solo por ti yo vivo
F5
Y cuando pienso en ti me alejo más de mí
G5
Se que al final me matara todo este amor
C5
Por ti...

Esta canción está super, me gusta mucho....
Se las dedico a ustedes, a todas mis amigas y en especial
a Gabrielita xq a ella que le gusta mucho este tema ju ju....
Dios los bendiga....
00:00 / 00:00
Outros vídeos desta música
Repetir
Outros vídeos desta música
Composição de Diego González
42 exibições
    • ½ Tom
    • A
    • Bb
    • B
    • C
    • Db
    • D
    • Eb
    • E
    • F
    • F#
    • G
    • Ab
  • Adicionar à lista

    0 comentários

    Ver todos os comentários

    Entre para oCifra Club PRO

    Tenha acesso a benefícios exclusivos no App e no Site

    • Chega de anúncios

    • Prioridade de compra em lançamentos

    • Mais recursos no app do Afinador

    • Atendimento Prioritário

    • Descontos nos produtos Cifra Club

    • Ajude a produzir mais conteúdo

    00:00 / 00:00

    Cifra Club Pro

    Aproveite o Cifra Club com benefícios exclusivos e sem anúncios
    Cifra Club Pro
    Aproveite o Cifra Club com benefícios exclusivos e sem anúncios
    OK