Cifra Club

Áudio

Diego e Victor Hugo

Cifra: Principal (violão e guitarra)
tom: B (forma dos acordes no tom de G) Capotraste na 4ª casa
[Intro] G  C9  G/B  D9/F#

[Primeira Parte]

    G               D9/F#
Eu tô gravando esse áudio
                      Em7
Pra dizer que não dá mais
                    Bm7     C9
E a gente vai terminar de vez
                        D9
Espera, vou começar outra vez

[Pré-Refrão]

    G               D9/F#
Eu tô gravando esse áudio
                      Em7
Pra dizer que não dá mais
                   Bm7
Você anda muito ausente
                  C9
Eu já tô ficando louco
                         D9
Pera aí, vou começar de novo

[Refrão]

    G               D9/F#
Eu tô gravando esse aúdio
                      Em7
Pra dizer que não dá mais
                      Bm7     C9
Pra aguentar essa saudade de você
                                 D9
Pra entender o quanto ainda te quero
    G                  D9/F#
Eu tô jogando orgulho fora
                  Em7
Chego aí em meia hora
                      Bm7
Pra acabar com esse clima
      C9
Você vai ver
               D9    
Eu tô falando sério
C
G                    G       
Áudio enviado com sucesso

( C9  G/B  D9/F# )

(solo sem capotraste)

[Solo] G  D9/F#  Em7  Bm7  C9  D9 

E|------------------------------------------|
B|---------------5/7------------------------|
G|-/4-3--------------6/8~--/8-8-8-8-8-6-6h8~|
D|------6-4~--/4----------------------------|
A|------------------------------------------|
E|------------------------------------------|

E|------------------------------------------|
B|--------------------------------7---------|
G|-/8-8-8-8-8-6-6h8~---/8-8-8-8-8---6h8~----|
D|------------------------------------------|
A|------------------------------------------|
E|------------------------------------------|

E|------------------------------------------|
B|-------------7-5~--4p2--------------------|
G|-8p6-------8-----------4~--3p1------------|
D|-----9--/9---------------------4~---------|
A|------------------------------------------|
E|------------------------------------------|

E|--------2---------------------------------|
B|------2------12~--------------------------|
G|----3-------------------------------------|
D|-/4---------------------------------------|
A|------------------------------------------|
E|------------------------------------------|

[Pré-Refrão]

    G               D9/F#
Eu tô gravando esse áudio
                      Em7
Pra dizer que não dá mais
                   Bm7
Você anda muito ausente
                  C9
Eu já tô ficando louco
                         D9
Pera aí, vou começar de novo

[Refrão]

    G               D9/F#
Eu tô gravando esse aúdio
                      Em7
Pra dizer que não dá mais
                      Bm7     C9
Pra aguentar essa saudade de você
                                 D9
Pra entender o quanto ainda te quero
    G                  D9/F#
Eu tô jogando orgulho fora
                  Em7
Chego aí em meia hora
                      Bm7
Pra acabar com esse clima
      C9
Você vai ver
               D9    
Eu tô falando sério

    G               D9/F#
Eu tô gravando esse aúdio
                      Em7
Pra dizer que não dá mais
                      Bm7     C9
Pra aguentar essa saudade de você
                                 D9
Pra entender o quanto ainda te quero
    G                  D9/F#
Eu tô jogando orgulho fora
                  Em7
Chego aí em meia hora
                      Bm7
Pra acabar com esse clima
      C9
Você vai ver
               D9    
Eu tô falando sério
C      D              G       
Áudio enviado com sucesso
Composição de Benicio Neto / Daniel Caon / Junior Gomes / Vinicius Poeta
Colaboração e revisão:
230.327 exibições
  • Simplificar cifra
    • ½ Tom
    • A
    • Bb
    • B
    • C
    • Db
    • D
    • Eb
    • E
    • F
    • F#
    • G
    • Ab
  • Adicionar à lista

    0 comentários

    Ver todos os comentários
    00:00 / 00:00
    Outros vídeos desta música
    Repetir Qualidade Automático
    Outros vídeos desta música
    00:00 / 00:00
    Automático

    Cifra Club Pro

    Aproveite o Cifra Club com benefícios exclusivos e sem anúncios
    Cifra Club Pro
    Aproveite o Cifra Club com benefícios exclusivos e sem anúncios
    OK