Cifra Club

Sorte

Diego e Victor Hugo

Cifra: Principal (violão e guitarra)
Selo Cifra Club: esta cifra foi revisada para atender aos critérios oficiais da nossa Equipe de Qualidade.
tom: A
[Intro] A  B7  D  Dm

E|------------------------------|
B|------------------------------|
G|--/6-6h7p6-6-6h7p6-6/8--------|
D|------------------------------|
A|------------------------------|
E|------------------------------|

E|------------------------------|
B|------------------------------|
G|--8h9p8-8-8h9p8-9/11-11h12p1--|
D|------------------------------|
A|------------------------------|
E|------------------------------|

E|--------------------|
B|--------------------|
G|--/10-9-7-----------|
D|----------7-7/11~~--|
A|--------------------|
E|--------------------|

  A              B7     
Sorte, é tá na rua num dia de chuva
D                                  Dm
E ter alguém pra dividir o seu guarda-chuva
  A              B7     
Sorte é ter alguém, te esperando em casa
D                                  Dm
E com um beijo apagar a semana estressada


F#m                     C#m               D
Sorte não é ganhar dinheiro, ter carro do ano
                 Dm
Sorte é um verdadeiro "eu te amo"
F#m                     C#m
Sorte é quando não se tem nada
                   D                            Dm
Mas se enxerga um tudo, num olhar de um amor absoluto

[Refrão] 

        A                D
Você coloriu minha vida cinza, amor
          G9                       D
E a cada sorriso seu, eu ganho um lápis de cor
            A
Você é meu tudo, tudo, tudo
               D                         A
Eu juntei meu mundo, mundo, mundo com o seu
                 E
Você é a sorte e o sortudo sou eu

        A                D
Você coloriu minha vida cinza, amor
          G9                       D
E a cada sorriso seu, eu ganho um lápis de cor
            A
Você é meu tudo, tudo, tudo
               D                         A
Eu juntei meu mundo, mundo, mundo com o seu
                 E              
Você é a sorte e o sortudo sou eu
                D   Dm                A B7 D Dm
...E o sortudo sou eu, o sortudo sou eu!

E|---------------------------------|
B|------------------------~--------|
G|--6h7-6-6h7-6-6h7-6-6h7-6-7/9~~--|
D|---------------------------------|
A|---------------------------------|
E|---------------------------------|

E|----------------------------------------------|
B|--------------------12p10--------10/12-10-----|
G|--7/9~~--9/13-11~~--------11-11-----------9~~-|
D|----------------------------------------------|
A|----------------------------------------------|
E|----------------------------------------------|

E|--------------------------|
B|---------/10-10/12-/10~~--|
G|--/10-9-------------------|
D|--------------------------|
A|--------------------------|
E|--------------------------|

F#m                     C#m               D
Sorte não é ganhar dinheiro, ter carro do ano
                 Dm
Sorte é um verdadeiro "eu te amo"
F#m                     C#m
Sorte é quando não se tem nada
                   D                            Dm
Mas se enxerga um tudo, num olhar de um amor absoluto

[Refrão] 

        A                D
Você coloriu minha vida cinza, amor
          G9                       D
E a cada sorriso seu, eu ganho um lápis de cor
            A
Você é meu tudo, tudo, tudo
               D                         A
Eu juntei meu mundo, mundo, mundo com o seu
                 E
Você é a sorte e o sortudo sou eu


        A                D
Você coloriu minha vida cinza, amor
          G9                       D
E a cada sorriso seu, eu ganho um lápis de cor
            A
Você é meu tudo, tudo, tudo
               D                         A
Eu juntei meu mundo, mundo, mundo com o seu
                 E              
Você é a sorte e o sortudo sou eu
                D   Dm                A B7 D Dm
...E o sortudo sou eu, o sortudo sou eu!
Outros vídeos desta música
83.762 exibições
    • ½ Tom
    • A
    • Bb
    • B
    • C
    • Db
    • D
    • Eb
    • E
    • F
    • F#
    • G
    • Ab
  • Adicionar à lista

Afinação da cifra

Afinador online

    0 comentários

    Ver todos os comentários

    Entre para o Cifra Club PRO

    Tenha acesso a benefícios exclusivos no App e no Site

    • Chega de anúncios

    • Mais recursos no app do Afinador

    • Atendimento Prioritário

    • Aumente seu limite de lista

    • Ajude a produzir mais conteúdo

    Cifra Club Pro

    Aproveite o Cifra Club com benefícios exclusivos e sem anúncios
    Cifra Club Pro
    Aproveite o Cifra Club com benefícios exclusivos e sem anúncios
    OK