Cifra Club

Arsénico

Dildo

Cifra: Principal (violão e guitarra)
tom: D
intro


lira
E|------------------|
B|------------------|
G|----4-4/6-6~~-----|
D|------------------|
A|------------------|
E|------------------|

este no era el lugar.........si debimos hacerlo al principio...

FIG 2
E|--------------------------------------------------------14~~|
B|-----------------------------------------------------14-----|
G|------------------------------------------------------------|

FIG 3
y hoy me hablas de libertad........

E|------------12--------------------------|
B|-----10---------10-----12-------12------| esto 3 veces
G|--11-----11--------11-------11------11--|

A  A  CUARTA VEZ TERE NA AB :

E|------------12------14------14------14------14------|
B|-----1| O---------10------14------14------14------14--
G|--11-----11-----------------------------------------|

CORO

A|-----------22222222-44444--7-77777777|
E|--------------------22222025-55555555|

AB  TERE NA EL CORO

A|-----------22222222-4~|
E|--------------------2~|


VERSO CON BAJO

FIG 2

VERSO CON FIG 3

CORO IGUAL Q EL PRIMERO

G  O:

E|-----------------------------------------------------------|
B|--------------------------------------2--------------------|
G|--4h2h4h2h4h2h4h2h4h2h4h2----2--4b(6)----4h2h4h2h4h2----2--|
D|--------------------------4---------------------------4----|
A|-----------------------------------------------------------|
E|-----------------------------------------------------------|

E|---------------------------------------------------------|
B|-----------------------------------2---------------------|
G|-------------------2--4--2--4b(6)-----4--4b(6)-r4--2-----|
D|--4h2h4h2----2--4-------------------------------------4--|
A|----------4----------------------------------------------|
E|---------------------------------------------------------|

E|-------------------------------------------------------------------------|
B|----------14---------------14--------------------------------------------|
G|--16b(18)-----16--16b(18)------16--18h16h14---11-14---14h11h14h11----11--|
D|------------------------------------------------------------------14-----|
A|-------------------------------------------------------------------------|
E|-------------------------------------------------------------------------|

E|-------------------------------------------------------------------|
B|-------------------------14--------------14--17-17-14-17-17-14-----|
G|--16h14h16h14h16-16b(18)-----16--16b(18)------------------------16-|
D|-------------------------------------------------------------------|
A|-------------------------------------------------------------------|
E|-------------------------------------------------------------------|

E|-----------------------------------------------------------|
B|-----------------------------------------------------------|
G|--18h16h18h16h18h16h18h16h18h16h18-18-18-18-18-18/19--19~--|
D|-----------------------------------------------------------|
A|-----------------------------------------------------------|
E|-----------------------------------------------------------|


coro 5 veces y en la sexta termina asi:



D|--44---44---44---44---4|
A|--44---44---44---44---4|
E|--22-0-22-0-22-0-22-0-2|
00:00 / 00:00
Outros vídeos desta música
Repetir
Outros vídeos desta música
Composição de Dld
    • ½ Tom
    • A
    • Bb
    • B
    • C
    • Db
    • D
    • Eb
    • E
    • F
    • F#
    • G
    • Ab
  • Adicionar à lista

    0 comentários

    Ver todos os comentários

    Conseguiu tocar?

    0 Tocaram 0 Ainda não

    Grave um vídeo tocando Arsénico e nos envie!

    Entre para oCifra Club PRO

    Tenha acesso a benefícios exclusivos no App e no Site

    • Chega de anúncios

    • Prioridade de compra em lançamentos

    • Mais recursos no app do Afinador

    • Atendimento Prioritário

    • Descontos nos produtos Cifra Club

    • Ajude a produzir mais conteúdo

    00:00 / 00:00

    Cifra Club Pro

    Aproveite o Cifra Club com benefícios exclusivos e sem anúncios
    Cifra Club Pro
    Aproveite o Cifra Club com benefícios exclusivos e sem anúncios
    OK