Cifra Club

Jueves

Dildo

Cifra: Principal (violão e guitarra)
tom: F#m
E|----2--2--2---1--1-----2--2-----1--1-----2--2-----1--1-----|
B|-----3--3--3---3--3-----3--3-----3--2-----3--3-----3--3----|
G|------2--2--2---2--2--2--2--2--2--2--3--2--2--2--2--2--2---|
D|---0----------0------0--------0-------0---------0----------|
A|-----------------------------------------------------------|
E|-----------------------------------------------------------|

E|-------------------------2---|
B|---2---2---2---2---2-----3---|
G|----2---2-------2---2----2---|
D|---------------------2---0---|
A|--0---0---0--0----0---0--0---|
E|-----------------------------|



y el final es:
                                       (esta es la parte lenta)
E|----2--2--2---1--1-----2--2-----1--1-----2--2-------0-----2------|
B|-----3--3--3---3--3-----3--3-----3--2-----3--3-----2-2----3------|
G|------2--2--2---2--2--2--2--2--2--2--3--2--2--2---2---2---2------|
D|---0----------0------0--------0-------0----------2-----2--0------|
A|------------------------------------------------0----------------|
E|-----------------------------------------------------------------|
00:00 / 00:00
Outros vídeos desta música
Repetir
Outros vídeos desta música
Composição de Francisco Familiar
    • ½ Tom
    • Am
    • Bbm
    • Bm
    • Cm
    • C#m
    • Dm
    • Ebm
    • Em
    • Fm
    • F#m
    • Gm
    • G#m
  • Adicionar à lista

    0 comentários

    Ver todos os comentários

    Conseguiu tocar?

    0 Tocaram 0 Ainda não

    Grave um vídeo tocando Jueves e nos envie!

    Entre para oCifra Club PRO

    Tenha acesso a benefícios exclusivos no App e no Site

    • Chega de anúncios

    • Prioridade de compra em lançamentos

    • Mais recursos no app do Afinador

    • Atendimento Prioritário

    • Descontos nos produtos Cifra Club

    • Ajude a produzir mais conteúdo

    00:00 / 00:00

    Cifra Club Pro

    Aproveite o Cifra Club com benefícios exclusivos e sem anúncios
    Cifra Club Pro
    Aproveite o Cifra Club com benefícios exclusivos e sem anúncios
    OK