Cifra Club

3 Pulinhos

Dilsinho

Cifra: Principal (violão e guitarra)
tom: C
[Intro] C9  G  F
        C9  Bb9  F

E|------------------------------------------|
B|-x/----------------5----------------------|
G|-x/---7h9--7p5h7---7h9r7p5----------------|
D|-x/-------------------------\7------------|
A|-x/---------------------------------------|
E|------------------------------------------|

E|------------------------------------------|
B|--------6p5h6p5-6/8-3/5--8----------------|
G|------------------------------------------|
D|----/7------------------------------------|
A|------------------------------------------|
E|------------------------------------------|

E|------------------------------------------|
B|-11-13-11h13b-11p10p8---------------------|
G|----------------------12p11p10---10-------|
D|-------------------------------13---13-10-|
A|------------------------------------------|
E|------------------------------------------|

[Primeira Parte]

C9                           G/B
  De cara limpa ou rosto maquiado
Am7                        G
  De cabelo feito ou bagunçado

[Riff 1]

E|------------------------------------------|
B|------------------------------------------|
G|------------------------------------------|
D|---------0--2/----------------------------|
A|----0--3----------------------------------|
E|--3---------------------------------------|

F                      C9
 Não tenta imitar ninguém
                       Am7
Seu corpo não tá na revista
                     G
Cê tá se cobrando demais
    C    Dm7   Em7   F   Dm7
Eu já te acho tão bonita

[Refrão]

C/E                F
É que eu amo suas sardas
                    C9
E a curva do seu nariz
                   Am7
Cada uma das suas marcas
                                  G
E os três pulinhos pra entrar no jeans
 C/E                    Am7
Deixei um bilhete no espelho
                   C/E
Pra nunca se esquecer
                             Am7
Pra amar tem que se amar primeiro
                        G
Ninguém faz isso por você
                          C
Ninguém faz isso por você

[Solo] Bb9  F  C  Bb9  F  C
       Bb9  F  C  Bb9  F  G

E|----------------------------------------------------|
B|-------6-6-6--6-8-----------------------------------|
G|----5--------------7b9-7---5~-----------------------|
D|-------------------------7--------------------------|
A|----------------------------------------------------|
E|----------------------------------------------------|

E|-/8-11-14--b14r13b15-----13b15r13p11----11----11----|
B|-------------------------------------13----13----13-|
G|----------------------------------------------------|
D|----------------------------------------------------|
A|----------------------------------------------------|
E|----------------------------------------------------|

E|----------------------------------------------------|
B|-/11-11-/11-/11-11----------------------------------|
G|-/12-12-/12-/12-12--10p8---------12-8---------------|
D|-------------------------10p8-----------------------|
A|------------------------------10--------------------|
E|----------------------------------------------------|

E|---------------------------------15b18----b18\13-11-|
B|----------------------------------------------------|
G|----10p8--------------8-8---------------------------|
D|---------10-8-------------/10-----------------------|
A|--------------10-8----------------------------------|
E|-------------------11-------------------------------|

E|-----13-11------------------------------------------|
B|--13---------11b13-11-------------------------------|
G|----------------------12-10-10p8------8-------------|
D|---------------------------------10-8----9h10-------|
A|----------------------------------------------8h10--|
E|----------------------------------------------------|

[Primeira Parte]

C9                           G/B
  De cara limpa ou rosto maquiado
Am7                        G
  De cabelo feito ou bagunçado

[Riff 2]

E|------------------------------------------|
B|------------------------------------------|
G|------------------------------------------|
D|---------0--3-----------------------------|
A|----0--3----------------------------------|
E|--3---------------------------------------|

F                      C9
 Não tenta imitar ninguém
                       Am7
Seu corpo não tá na revista
                     G
Cê tá se cobrando demais
    C    Dm7   Em7   F   Dm7
Eu já te acho tão bonita

[Refrão]

[Riff 3]

E|------------------------------------------|
B|--10-10-10/13-13--------------------------|
G|------------------9-----------------------|
D|------------------------------------------|
A|--8-----8/12------------------------------|
E|------------------8-----------------------|

C/E                F
É que eu amo suas sardas
                    C9
E a curva do seu nariz
                   Am7
Cada uma das suas marcas
                                  G
E os três pulinhos pra entrar no jeans
 C/E                    Am7
Deixei um bilhete no espelho
                   C/E
Pra nunca se esquecer
                            
Pra amar tem que se amar primeiro

[Riff 4]

E|--12--------------------------------------|
B|--13--13-10-------------------------------|
G|------14-10--9--------9---7---------------|
D|-------------10---10--10--9---------------|
A|------------------10----------------------|
E|------------------------------------------|
                        G
Ninguém faz isso por você
F                         C9
  Ninguém faz isso por você
00:00 / 00:00
Outros vídeos desta música
Repetir
Outros vídeos desta música
Composição de PEDRO MENDES / Rapha Lucas
Colaboração e revisão:
  • Getúlio Vasconcelos
  • Gustavo Vaz
2.367 exibições
    • ½ Tom
    • A
    • Bb
    • B
    • C
    • Db
    • D
    • Eb
    • E
    • F
    • F#
    • G
    • Ab
  • Adicionar à lista

    0 comentários

    Ver todos os comentários

    Conseguiu tocar?

    0 Tocaram 0 Ainda não

    Grave um vídeo tocando 3 Pulinhos e nos envie!

    Entre para oCifra Club PRO

    Tenha acesso a benefícios exclusivos no App e no Site

    • Chega de anúncios

    • Prioridade de compra em lançamentos

    • Mais recursos no app do Afinador

    • Atendimento Prioritário

    • Descontos nos produtos Cifra Club

    • Ajude a produzir mais conteúdo

    00:00 / 00:00

    Cifra Club Pro

    Aproveite o Cifra Club com benefícios exclusivos e sem anúncios
    Cifra Club Pro
    Aproveite o Cifra Club com benefícios exclusivos e sem anúncios
    OK