Cifra Club

Boa Sorte (part. Paula Mattos)

Dilsinho

Cifra: Principal (violão e guitarra)
Selo Cifra Club: esta cifra foi revisada para atender aos critérios oficiais da nossa Equipe de Qualidade.
tom: D
[Intro] G9  A  F#m7  Bm  A/C#

[Violão]

   G9            A       
E|-------5-------------0--------------------|
B|-----3----2h3------2----0h2---------------|
G|---0------0------2------2-----------------|
D|----------0-------------2-----------------|
A|---------------0--------0-----------------|
E|-3--------3-------------------------------|

   F#m7        Bm  A/C#
E|-------0---------0------------------------|
B|-----2-------3---2------------------------|
G|---2-----2---4---2------------------------|
D|---------2---4----------------------------|
A|-------------2---4------------------------|
E|-2-------2--------------------------------|

[Guitarra]

E|------------------------------------------|
B|---------------8/10-10-------7h8p7\5~-----|
G|-6/7-7-7-7-7-7----------7-6---------------|
D|------------------------------------------|
A|------------------------------------------|
E|------------------------------------------|

E|------------------------------------------|
B|---------------8/10-10--------------------|
G|-4/6-6-6-6-6-6---------6--------9---------|
D|-------------------------7/9--x-----------|
A|------------------------------------------|
E|------------------------------------------|

                  H.N.
E|------------------------------------------|
B|-------------------7----------------------|
G|---7---6---0h2---7------------------------|
D|-x---x---x--------------------------------|
A|------------------------------------------|
E|------------------------------------------|

[Primeira Parte]

D9
   Eu vou usar o meu melhor disfarce
A
  Vou maquiar minha felicidade
Em7
    Eu não vou dar esse gostinho pra você
G9
   Eu vou chorar na chuva pra ninguém ver

D9
   Eu abri mão do meu amor, te deixei voar
A                                             Em7
  A fase que a gente chegou, não dava pra continuar
             G9
Você me abraçando querendo soltar

[Pré-Refrão]

         Em7
Porque quando um não quer, dois não briga
D/F#     G                       A
Isso só tava aumentando a ferida

[Refrão]

                  G
Eu te desejo boa sorte
          A
No seu novo romance
              F#m7
Que você não faça o que fez comigo
            Bm
E aproveita essa chance

                  G
Eu te desejo boa sorte
          A
No seu novo romance
              F#m7
Vê se leva a sério
                               Bm
E não brinca com a cara de alguém que te ame

[Solo] E  F#  D#m  G#m  F#/A#

E|------------------------------------------|
B|------------------------------------------|
G|---------------9/11-11------8h9p8\6-------|
D|-8/9-9-9-9-9-9---------9-8----------------|
A|------------------------------------------|
E|------------------------------------------|

E|---------------------12/14------------9---|
B|-9/11-11-11-11-11-11-------11-9--9/11-----|
G|------------------------------------------|
D|------------------------------------------|
A|------------------------------------------|
E|------------------------------------------|

E|-------------------------9--12p11h12------|
B|-----------------9/11/12------------------|
G|------------------------------------------|
D|-9h11-9--9h11-9---------------------------|
A|------------------------------------------|
E|------------------------------------------|

[Primeira Parte]

B9
   Eu abri mão do meu amor, te deixei voar
F#                                             C#m7
   A fase que a gente chegou, não dava pra continuar
             E
Você me abraçando querendo soltar

[Pré-Refrão]

         C#m7
Porque quando um não quer, dois não briga
         E                     F#
Isso só tava aumentando a ferida

[Refrão]

                  E
Eu te desejo boa sorte
          F#
No seu novo romance
              D#m7
Que você não faça o que fez comigo
            G#m
E aproveita essa chance

                  E
Eu te desejo boa sorte
          F#
No seu novo romance
              D#m7
Vê se leva a sério
                                         G#m
E não brinca com a cara de alguém que te ame

                  E
Eu te desejo boa sorte
          F#
No seu novo romance
              D#m7
Que você não faça o que fez comigo
            G#m
E aproveita essa chance

                  E
Eu te desejo boa sorte
          F#
No seu novo romance
              D#m7
Vê se leva a sério
                                         G#m
E não brinca com a cara de alguém que te ame

[Final] E  F#  D#m  G#m

E|------------------------------------------|
B|------------------------------------------|
G|---------------9/11-11------8h9p8\6-------|
D|-8/9-9-9-9-9-9---------9-8----------------|
A|------------------------------------------|
E|------------------------------------------|

E|---------------------12/14------------9---|
B|-9/11-11-11-11-11-11-------11-9--9/11-----|
G|------------------------------------------|
D|------------------------------------------|
A|------------------------------------------|
E|------------------------------------------|

E|-7h9p7-6----------------------------------|
B|---------7-7/9----------------------------|
G|------------------------------------------|
D|------------------------------------------|
A|------------------------------------------|
E|------------------------------------------|
00:00 / 00:00
Outros vídeos desta música
Repetir
Outros vídeos desta música
862 exibições
    • ½ Tom
    • A
    • Bb
    • B
    • C
    • Db
    • D
    • Eb
    • E
    • F
    • F#
    • G
    • Ab
  • Adicionar à lista

Afinação da cifra

Afinador online

    0 comentários

    Ver todos os comentários

    Entre para o Cifra Club PRO

    Tenha acesso a benefícios exclusivos no App e no Site

    • Chega de anúncios

    • Mais recursos no app do Afinador

    • Atendimento Prioritário

    • Aumente seu limite de lista

    • Ajude a produzir mais conteúdo

    00:00 / 00:00

    Cifra Club Pro

    Aproveite o Cifra Club com benefícios exclusivos e sem anúncios
    Cifra Club Pro
    Aproveite o Cifra Club com benefícios exclusivos e sem anúncios
    OK