Cifra Club

Duas

Dilsinho

Cifra: Principal (violão e guitarra)
Selo Cifra Club: esta cifra foi revisada para atender aos critérios oficiais da nossa Equipe de Qualidade.
tom: G
[Intro] C9  G  D

[Tab - Intro]

   C9          G       D
E|-3--2--0----------------------------------|
B|-3--3--3--3-------3-----------------------|
G|-0-----------2h4-----2--------------------|
D|-------------0-------0--------------------|
A|-3----------------------------------------|
E|-------------3----------------------------|

[Primeira Parte]

[Tab - Primeira parte]

Parte 1 de 2
   C           G     D
E|-3--3--3--3--3--3--2----------------------|
B|-3--3--3--3--3--3--3----------------------|
G|-0--0--0--0--0--0--2----------------------|
D|-------------------0----------------------|
A|-3----------------------------------------|
E|-------------3----------------------------|
Parte 2 de 2
   C           G     D
E|-3--3--3--3--3--3--2----------------------|
B|-3--3--3--3--3--3--3----------------------|
G|-0--0--0--0--0--0--2----------------------|
D|-------------------0----------------------|
A|-3----------------------------------------|
E|-------------3----------------------------|

C9
Antes de você
                                G                     
Talvez você tivesse todos os motivos
                   D
Pra desconfiar de mim
C9                        
Eu fiz tanta coisa no passado
                      G
Mas não tinha do meu lado
              D
Uma mulher assim

[Pré-Refrão]

              Am7       Em
Se quer procurar, procura
               G          D
Se quer vasculhar, vasculha
                Am7   Em
Se eu tivesse que ter outra
   D
Escuta

[Refrão]

[Tab - Refrão]

Parte 1 de 2
   C9          G    D
E|-3--2--0----------2-----------------------|
B|-3--3--3--3--3----3-----------------------|
G|-0-----------0----2-----------------------|
D|-------------0----0-----------------------|
A|-3----------------------------------------|
E|-------------3----------------------------|
Parte 2 de 2
   C9          G    D
E|-3--2--0----------2-----------------------|
B|-3--3--3--3--3----3-----------------------|
G|-0-----------0----2-----------------------|
D|-------------0----0-----------------------|
A|-3----------------------------------------|
E|-------------3----------------------------|

                       C9
Se eu tivesse que ter duas
       G                   D       
Uma seria você e a outra uma filha sua
 C9
Duas 
              G                   D
Com o olho igual ao meu e a boca sua
                Am7  G
Eu não te trocari____a
                Em  D
Por nada nessa vi__da
    G/B         Am7  Em
Eu não te trocari____a
 D
Nunca

[Primeira Parte]

[Tab - Primeira Parte]

Parte 1 de 3
   C9               G           D
E|-3-3-3-3-3-3---3--3---3--3-3--2--2---2----|
B|-3-3-3-3-3-3---3--3---3--3-3--3--3---3----|
G|-0-0-0-0-0-0---0--0---0--0-0--2--2---2----|
D|------------------------------0----0------|
A|-3---3---3---3----------------------------|
E|--------------------3----3----------------|

Parte 2 de 3
   C9
E|-3---3--3-3--3--3---3---------------------|
B|-3---3--3-3--3--3---3---------------------|
G|-0---0--0-0--0--0---0---------------------|
D|------------------------------------------|
A|---3----3----3----3-----------------------|
E|------------------------------------------|

Parte 3 de 3
   G           D
E|-3---3--3-3--2--2---2---------------------|
B|-3---3--3-3--3--3---3---------------------|
G|-0---0--0-0--2--2---2---------------------|
D|-------------0----0-----------------------|
A|------------------------------------------|
E|---3----3---------------------------------|

C9
Antes de você
                                G                     
Talvez você tivesse todos os motivos
                   D
Pra desconfiar de mim
C9                        
Eu fiz tanta coisa no passado
                      G
Mas não tinha do meu lado
              D
Uma mulher assim

[Pré-Refrão]

[Tab - Pré-Refrão]

Parte 1 de 2
      Am7  G       Em  D
E|-----0---3-3-3---0------------------------|
B|-----1---3-3-3---0------------------------|
G|-----0---0-0-0---0------------------------|
D|-----2---0-0-0---2---4/5-4-0--------------|
A|-----0---2-2-2---2------------------------|
E|---------3-3-3---0------------------------|
       ↓   ↓ ↓ ↓   ↓

Parte 2 de 2
   Am7   Em    D
E|-0--0--0--0--2--2--2-2-2-2----------------|
B|-1--1--0--0--3--3--3-3-3-3----------------|
G|-0--0--0--0--2--2--2-2-2-2----------------|
D|-2--2--2--2--0--0--0-0-0-0----------------|
A|-0--0--2--2-------------------------------|
E|-------0--0-------------------------------|
   ↓  ↓  ↓  ↓  ↓  ↓  ↓ ↓ ↓ ↓

                    Am7  G
Se quer procurar, procu_ra
                    Em    D
Se quer vasculhar, vasculha
                Am7       Em
Se eu tivesse que ter outra
   D
Escuta

[Refrão Final]

[Tab - Refrão Final]

Parte 1 de 12 
   C9        G           D
E|-3--2--3---3---3--3-3--2--2---2-----------|
B|-3--3--3---3---3--3-3--3--3---3-----------|
G|-0-----0---0---0--0-0--2--2---2-----------|
D|-------2---------------0----0-------------|
A|-3-----3----------------------------------|
E|-------------3----3-----------------------|

Parte 2 de 12 
   C9
E|-3---3--3-3--3--3---3---------------------|
B|-3---3--3-3--3--3---3---------------------|
G|-0---0--0-0--0--0---0---------------------|
D|------------------------------------------|
A|---3----3----3----3-----------------------|
E|------------------------------------------|

Parte 3 de 12 
   G           D      G/B
E|-3---3--3-3---------3---------------------|
B|-3---3--3-3---------3---------------------|
G|-0---0--0-0--2-3-2--0---------------------|
D|------------------------------------------|
A|--------------------2---------------------|
E|---3----3---------------------------------|

Parte 4 de 12
   C9      Em       G           D
E|-3-3-3-3-0-0---0--3---3--3-3--2--2---2----|
B|-3-3-3-3-0-0---0--3---3--3-3--3--3---3----|
G|-0-0-0-0-0-0---0--0---0--0-0--2--2---2----|
D|------------------------------0----0------|
A|-3---3------------------------------------|
E|---------0---0------3----3----------------|

Parte 5 de 12 
  C9/E    G/B      D
E|-3---3---3---3---2-2-2-2-2-2-2------------|
B|-3---3---3---3---3-3-3-3-3-3-3------------|
G|-0---0---0---0---2-2-2-2-2-2-2------------|
D|-2-----------0---0-0-0-0-0-0-0------------|
A|-3-----0-2-3------------------------------|
E|-0-2-3------------------------------------|
   ↓               ↓ ↓ ↓ ↓ ↓ ↓ ↓

Parte 6 de 12 
   C9               G           D
E|-3-3-3-3-3-3---3--3---3--3-3--2--2---2----|
B|-3-3-3-3-3-3---3--3---3--3-3--3--3---3----|
G|-0-0-0-0-0-0---0--0---0--0-0--2--2---2----|
D|------------------------------0----0------|
A|-3---3---3---3----------------------------|
E|--------------------3----3----------------|

Parte 7 de 12 
   C9
E|-3---3--3-3--3--3---3---------------------|
B|-3---3--3-3--3--3---3---------------------|
G|-0---0--0-0--0--0---0---------------------|
D|------------------------------------------|
A|---3----3----3----3-----------------------|
E|------------------------------------------|

Parte 8 de 12 
   G           D
E|-3---3--3-3--2--2---2---------------------|
B|-3---3--3-3--3--3---3---------------------|
G|-0---0--0-0--2--2---2---------------------|
D|-------------0----0-----------------------|
A|------------------------------------------|
E|---3----3---------------------------------|

Parte 9 de 12 
   C9          Em
E|-3---3--3-3--0--0---0---------------------|
B|-3---3--3-3--0--0---0---------------------|
G|-0---0--0-0--0--0---0---------------------|
D|------------------------------------------|
A|---3----3---------------------------------|
E|-------------0----0-----------------------|

Parte 10 de 12 
   G           D
E|-3---3--3-3--2--2---2---------------------|
B|-3---3--3-3--3--3---3---------------------|
G|-0---0--0-0--2--2---2---------------------|
D|-------------0----0-----------------------|
A|------------------------------------------|
E|---3----3---------------------------------|

Parte 11 de 12 
   Am7         Em        D
E|-0---0--0-0--0--0---0--2---2--2-2---2-----|
B|-1---1--1-1--0--0---0--3---3--3-3---3-----|
G|-0---0--0-0--0--0---0--2---2--2-2---2-----|
D|-------------------------0----0-----0-----|
A|---0----0---------------------------------|
E|-------------0----0-----------------------|

Parte 12 de 12 
   C9          G       D
E|-3--2--0----------------------------------|
B|-3--3--3--3-------3-----------------------|
G|-0-----------2h4-----2--------------------|
D|-------------0-------0--------------------|
A|-3----------------------------------------|
E|-------------3----------------------------|

                       C9
Se eu tivesse que ter duas
        G                  D       
Uma seria você e a outra uma filha sua
 C9
Duas
              G                   D
Com o olho igual ao meu e a boca sua
        G/B     C9  Em
Eu não te trocari___a
                G   D
Por nada nessa vi__da
                C9/E  G/B
Eu não te trocari_____a
 D
Nunca

                       C9
Se eu tivesse que ter duas
        G9                 D       
Uma seria você e a outra uma filha sua
 C9
Duas
              G9                  D
Com o olho igual ao meu e a boca sua
                C9  Em
Eu não te trocari__a
                G   D
Por nada nessa vi__da
              Am7  Em
Eu não te troca__ria
D        C9  G9  D
  Nunca
Outros vídeos desta música
130.253 exibições
  • Simplificar cifra
    • ½ Tom
    • A
    • Bb
    • B
    • C
    • Db
    • D
    • Eb
    • E
    • F
    • F#
    • G
    • Ab
  • Adicionar à lista

Afinação da cifra

Afinador online

    0 comentários

    Ver todos os comentários

    Entre para o Cifra Club PRO

    Tenha acesso a benefícios exclusivos no App e no Site

    • Chega de anúncios

    • Mais recursos no app do Afinador

    • Atendimento Prioritário

    • Aumente seu limite de lista

    • Ajude a produzir mais conteúdo

    Capítulos
    • Apresentação
    • Tocando a Música
    • Acordes da Intro e da Primeira Parte
    • Ensinando a Intro
    • Ensinando a Primeira Parte
    • Acordes do Pré-Refrão
    • Ensinando o Pré-Refrão
    • Acorde do Refrão
    • Ensinando o Refrão
    • Ensinando a Repetição da Primeira Parte
    • Ensinando a Repetição do Pré-Refrão
    • Acorde do Refrão Final
    • Ensinando o Refrão Final
    • Encerramento

    Cifra Club Pro

    Aproveite o Cifra Club com benefícios exclusivos e sem anúncios
    Cifra Club Pro
    Aproveite o Cifra Club com benefícios exclusivos e sem anúncios
    OK