Enviar cifraEntrar

Holy Diver

Dio

Cifra: Principal
exibições 140.872
Tom: A#
Introdução: C5  ( C5  D5  Eb5 )
            C5  ( C5  D5  Eb5  Bb5 )
            C5  ( C5  D5  Eb5  Bb5 )
            C5  Bb5  C5
            C5  ( C5  D5  Eb5 )
            C5  ( C5  D5  Eb5  Bb5 )
            C5  ( C5  D5  Eb5  Bb5 )
            C5  Bb5  Ab5  ( Bb5 )


Primeira Parte:

C5
   Holy diver
                                           Ab5
You've been down too long in the midnight sea
C5               Bb5       Ab5
   Oh, what's becoming of me
C5
   Ride the tiger
                                             Ab5
You can see his stripes, but you know he's clean
C5                Bb5        C5
   Oh, don't you see what I mean

       Ab
Gotta get away
 Bb5  C5  ( C5  D5  Eb5 )
Holy diver

C5  ( Eb5  Bb5 )

C5  ( Eb5  Bb5 )

C5  Bb5  C5


Segunda Parte:

    C5
Got    shiny diamonds
                                          Ab5
Like the eyes of a cat in the black and blue
C5               Bb5        Ab5
   Something is coming for you
   ( Bb5 )  C5
Look out!      Race for the morning
                                           Ab5
You can hide in the sun 'till you see the light
C5               Bb5          C5
   Oh, we will pray it's all right
       Ab             Bb  ( B )
Gotta get away, get away


Terceira Parte:

C5     Bb5             Ab5  ( Ab5  Bb5 )
   Between the velvet lies
C5             Bb5                  G5  ( G5  Bb5 )
   There's a truth that's hard as steel
C5      Bb5          Ab5  ( Ab5  Bb5 )
   The vision never dies
C5           Bb5           Ab5
   Life's a never ending wheel say


Quarta Parte:

C5
   Holy diver
                              Ab5
You're the star of the masquerade
C5             Bb5       Ab5
   No need to look so afraid
            ( Bb5 )  C5
Jump, jump,             jump on the tiger
                                           Ab5
You can feel his heart, but you know he's mean
C5                 Bb5      Ab5
   Some light can never be seen

Solo: Bb5  C5  Eb5  C5
      C5  C5  Eb5  C5
      Eb5  D5
      Bb5  C5  Eb5  C5
      Bb5  C5  Eb5  C5
      Eb5  F5
      Bb5  C5  Eb5  C5
      C5  C5  Eb5  C5
      Eb5  Bb5
      Ab5  Bb5  Ab5  Bb5  ( Eb5  D5 )
      Ab5  Bb5

(Parte 1)


E|----------------------------------------------------|
B|-10b11r10p8-10p8b-----------------------------------|
G|-10b11r10p8-10p8b-------------8-7-5-5~~-------------|
D|------------------10-8-8~-\-/-8-7-5-5~~-------------|
A|----------------------------------------8-6-5~~-\-/-|
E|----------------------------------------------------|


E|----------------------------------------------------|
B|----------------------------------------------------|
G|-8-----8-8~~--7-7-7~~-------------------------------|
D|---10--8-8~~--7-7-7~~-------------------------------|
A|----------------------------------------------------|
E|----------------------------------------------------|


E|----------------------------------------------------|
B|----------------------------------------------------|
G|-----------------------------------5~~-\--/---------|
D|-8-10-10~--8----------------------------------------|
A|-------------10-9-8\6-8b10--b10~--------------------|
E|----------------------------------------------------|


(Parte 2)


E|-18b20r----16--15----------------------18-----------|
B|-------------------16--15--18--16--15------16--15~~-|
G|----------------------------------------------------|
D|----------------------------------------------------|
A|----------------------------------------------------|
E|----------------------------------------------------|


E|----------15-16-18-16-15----------------------------|
B|-13h15h16----------------16-15-16p15----------------|
G|-------------------------------------17-15-17-17b20r|
D|----------------------------------------------------|
A|----------------------------------------------------|
E|----------------------------------------------------|


E|----------------------------------------------------|
B|----------------------------------------------------|
G|-15----15-15~---15\---------------------------------|
D|----17----------------------------------------------|
A|----------------------------------------------------|
E|----------------------------------------------------|


(Parte 3)


E|----------------------------------------------------|
B|-8-9-8---11-----------------------------------------|
G|-------8----8-7-10-8-7-------7-7-7-8-8-8-10-10-10---|
D|-----------------------10-10------------------------|
A|----------------------------------------------------|
E|----------------------------------------------------|


(Parte 4)


E|----------------------------------------------------|
B|-8-9-8h9p8----8-9-8h9p8---------8-9-8h9p8-----------|
G|-----------10-----------8-7-8-8-----------10-8-7-8-7|
D|----------------------------------------------------|
A|----------------------------------------------------|
E|----------------------------------------------------|


E|----------------------------------------------------|
B|-9-8h9p8----8---------------------------------------|
G|---------10---8-7h8p7-------------------------------|
D|----------------------10-8-8~-----------------------|
A|----------------------------------------------------|
E|----------------------------------------------------|


E|----------------------------------------------------|
B|-8-9-8h9p8----8---------9-8h9p8----8-11-8-9-8-------|
G|-----------10---8-7-8-7---------10------------------|
D|----------------------------------------------------|
A|----------------------------------------------------|
E|----------------------------------------------------|


E|-11-10-8---------11-10-8----------------------------|
B|---------11-9-8----------11-9-8----9p8--------------|
G|--------------------------------10-----10-8-7-8p7/8-|
D|----------------------------------------------------|
A|----------------------------------------------------|
E|----------------------------------------------------|


E|----------------------------------------------------|
B|--------------------8-8-8-8--11-11-11-11--9-9-9-9p8-|
G|-8-8-8/10-10-10-10----------------------------------|
D|----------------------------------------------------|
A|----------------------------------------------------|
E|----------------------------------------------------|


E|----------------------------------------------------|
B|----------------------------------------------------|
G|-10-8-10b12r10p8--7h8p7~~---------------------------|
D|----------------------------------------------------|
A|----------------------------------------------------|
E|----------------------------------------------------|



Quinta Parte:

C5
   Holy diver
                                           Ab5
you've been down too long in the midnight sea
C5               Bb5       Ab5  ( Bb5 )
   Oh, what's becoming of me
C5
   Ride the tiger
                                             Ab5
You can see his stripes, but you know he's clean
C5                Bb5        C5
   Oh, don't you see what I mean
       Ab
Gotta get away
      Bb
Get away
       Ab
Gotta get away
      Bb  ( B )
Get away


Final:

C5  ( C5  D5  Eb5 )  C5
             Holy   diver
( Eb5  Bb5 )   C5
      Sole survivor
( C5  D5   Eb5 )     C5
     Your honour's clean
( Eb5  D5 )  C5
      Holy  diver
( C5  D5   Eb5 )  C5
          Holy   diver
( Eb5  Bb5 )        C5
             Never cut in the middle
     ( C5  D5  Eb5 )    C5
Comin' aft_er you holy diver
( Eb5  D5 )  C5   ( C5  D5  Eb5 )  C5  ( Eb5  Bb5 )
  Oh, holy  diver
Yeah, alright
Get away, Get away, Get away
Holy diver
  • 1
  • 2
  • 3
  • 4
  • 5
  • 6
  • 7
  • 8
  • 9
  • 10
  • 11
  • 12
    Acordes para:
      Composição: DioColaboração e revisão:

      0 comentários

        mostrar mais comentários

        Conseguiu tocar?

        28tocaram0ainda não

        Grave um vídeo tocando Holy Diver e mande pra gente!

        00:00 / 00:00
        outros vídeos desta música
        repetirqualidadeautomática
        • automática
        Outro vídeos desta música
          Capítulos
          • Tocando a música
          • Dicas iniciais / Equipamentos
          • Acordes da música
          • Tocando Introdução
          • Ensinando Introdução
          • Dicas da Primeira Parte
          • Tocando Primeira Parte
          • Ensinando Primeira Parte
          • Tocando Segunda Parte
          • Ensinando Segunda Parte
          • Dicas Terceira Parte
          • Tocando Terceira Parte
          • Ensinando Terceira Parte
          • Dicas da Quarta Parte
          • Tocando Quarta Parte
          • Ensinando Quarta Parte
          • Dicas Solo
          • Tocando Solo
          • Ensinando Solo
          • Tocando Solo (Lento)
          • Ensinando Solo (Base)
          • Dias Finais
          • Tocando Final
          • Ensinando Final
          • Encerramento
          • Ficha técnica / Erros de Gravação
          00:00 / 00:00
          automática
          • automática
          Acordes para:violão e guitarra
          dificuldadeexibiçõescontribuições
          1 versão de Tab de baixoexibiçõescontribuições
          1 versão de Tab de bateriaexibiçõescontribuições
          2 versões de Guitar Proformatodownloadscontribuição
          fecharplay/pause subir/descer velocidade
            acordes
            fechar
            OK
            Feedback