Cifra Club

Aprenda

Obscure

Dir en Grey

Cifra: Principal (violão e guitarra)
Já pensou em usar uma coleção de roupas do Cifra Club? Responda as perguntas abaixo e nos ajude nessa missão! →
tom: A
Tuning: 
1=B  4=A
2=F# 5=E
3=D  6=A
Guitar 1=Lead
Guitar 2=Rhythm

Intro:
Guitar 2:
|-----------------|---------------------|-----------------------------------|
|---repeat-3x-----|---repeat-3x---------|-----------------------------------|
|-o-------------o-|-o-------------4-3-o-|-----------------------------------|
|--1/2--1/2--1----|--1/2--1/2--1--2-1---|-----------------------------------|
|-o1/2--1/2--1--o-|-o1/2--1/2--1------o-|-----------------------------------|
|--1/2--1/2--1----|--1/2--1/2--1--------|-----------------------------------|

Guitar 1
|-------22~~~--------20~~~~-----------------------------------------------|
|-------------------------------------------------------------------------|
|-19-20----------19----------19-20----------------------------------------|
|-------------------------------------------------------------------------|
|------------------------------------------------------------------------ |
|-------------------------------------------------------------------------|

Riff A:
Both Guitars
|-----------------------|
|-----------------------|
|-----------------------|
|--2\1--2\1--2\1--2\1---|x4
|--2\1--2\1--2\1--2\1---|
|--2\1--2\1--2\1--2\1---|

Riff B:
Both Guitars
|---------------------|
|---------------------|
|-----(7)---------(7)-|
|-1/2-----2--1/2------|x3
|-1/2-(5)-2--1/2--(5)-|
|-1/2-----2--1/2------|
()= Guitar 1 only

Riff C:
Guitar 1
|-22~~~~~~~~~~--20~~~~~~~~~~~~-------22~~~~~----20~~~~~~---------22~~~~---|
|-------------------------------------------------------------------------|
|------------------------------19-20-----------------------19-------------|
|-------------------------------------------------------------------------|
|-------------------------------------------------------------------------|
|-------------------------------------------------------------------------|

Guitar 2
|-------------------------------------|   |---------------------------------|
|-------------------------------------|   |---------------------------------|
|-------------------------------------|   |---------------------------------|
|-1~~~~-1~~~~~---3~~--3~~--4~~--3~~---|x6 |-1--1--1-------------------------|
|-------------------------------------|   |-1--1--1-------------------------|
|-------------------------------------|   |-1--1--1-------------------------|
Riff B

Refrain:
Guitar 1
|-------------------------------------|
|-------------------------------------|
|-------------------------------------|
|-6-6-6-6--6-6-6-6--6-6-6-6--6-6-6-6--|x3
|-------------------------------------|
|-------------------------------------|

|-------------------------------------|
|-------------------------------------|
|-------------------------------------|
|-9-9-9-9--9-9-9-9--9-9-9-9--9-9-9-9--|x2
|-------------------------------------|
|-------------------------------------|

|--------------------------------------------|
|--------------------------------------------|
|--------------------------------------------|
|-9-9-9-9-9-9-11-11-11-11-11-11-11-11-11-11--|
|--------------------------------------------|
|--------------------------------------------|
Guitar 2
|-------------------------------------------------------------------------|
|-------------------------------------------------------------------------|
|-------------------------------------------------------------------------|
|-6-6-6-6--6-6-6-6--4-4-4-4--4-4-4-4--2-2-2-2--2-2-2-2--4-4-4-4--4-4-4-4--|
|-6-6-6-6--6-6-6-6--4-4-4-4--4-4-4-4--2-2-2-2--2-2-2-2--4-4-4-4--4-4-4-4--|
|-6-6-6-6--6-6-6-6--4-4-4-4--4-4-4-4--2-2-2-2--2-2-2-2--4-4-4-4--4-4-4-4--|
Intro
Riff A
Riff B
Refrain (x2)
Refrain Variation:
Guitar 1
|-------------------------------------|
|-------------------------------------|
|-------------------------------------|
|-6-6-6-6--6-6-6-6--6-6-6-6--6-6-6-6--|x3
|-------------------------------------|
|-------------------------------------|

|-------------------------------------|
|-------------------------------------|
|-------------------------------------|
|-9-9-9-9--9-9-9-9--9-9-9-9--9-9-9-9--|x2
|-------------------------------------|
|-------------------------------------|

|-------------------------------------------------------------------------|
|-------------------------------------------------------------------------|
|-------------------------------------------------------------------------|
|-11-11-11-11--11-11-11-11--11-11-11-11--11-11-11-11--8-8-8-8--8-8-8-8----|
|-------------------------------------------------------------------------|
|-------------------------------------------------------------------------|

|------------------------------|
|------------------------------|
|------------------------------|
|-9-9-9-9--9-9-9-9-------------|
|------------------------------|
|------------------------------|
Composição de KYO
2.701 exibições
    • ½ Tom
    • A
    • Bb
    • B
    • C
    • Db
    • D
    • Eb
    • E
    • F
    • F#
    • G
    • Ab
  • Adicionar à lista

    0 comentários

    Ver todos os comentários

    Conseguiu tocar?

    1 Tocaram 0 Ainda não

    Grave um vídeo tocando Obscure e nos envie!

    00:00 / 00:00
    Outros vídeos desta música
    Repetir Qualidade Automático
    Outros vídeos desta música
    00:00 / 00:00
    Automático

    Cifra Club Pro

    Aproveite o Cifra Club com benefícios exclusivos e sem anúncios
    Cifra Club Pro
    Aproveite o Cifra Club com benefícios exclusivos e sem anúncios
    OK