Cifra Club

Expresso Love

Dire Straits

Cifra: Principal (violão e guitarra)
exibições 7.551
Tom: D
Dm
^=bend
~= vibrato
rb= reverse bend
br=brush(with fingers)
/=slide
p=pull-off
h=hammer-on
R=Repetição

E|---------------------------------------------------------------------------|
B|------------------------------5--6---5h6p5---------------------------------|
G|---------------5-7----5-7---------------------7---5---7---------------6-5--|
D|-------5/7-----5-7--------------------------------------------5---7--------|
A|-------5/7-----------------------------------------------------------------|
E|---------------------------------------------------------------------------|

E|---------------------------------------------------------------------------|
B|---8-8-8br--R----8--8--8--8------------13^-rb--13---------------------|
G|---9-9-9br--R----10-9--10-9------------12^-rb--12-----9-10-----9-10---|
D|---------------------------------------10------------------------12--------|
A|---------------------------------------------------------------------------|
E|---------------------------------------------------------------------------|

E|---------------------------------------------------------------------------|
B|--------------13-13-------13------13---------------13--13------------------|
G|--12-10---12^---------12^----12^~-12---10--12--10--12^-12--10--12--10h12---|
D|---------------------------------------------------------------------------|
A|---------------------------------------------------------------------------|
E|---------------------------------------------------------------------------|

E|-------------------------13---10--10--10----13p10-----10--13p10------------|
B|---------10-11--11-----13^---13^-13^-13^-----------10-----------10---------|
G|--10h12--------------------------------------------------------------------|
D|---------------------------------------------------------------------------|
A|---------------------------------------------------------------------------|
E|---------------------------------------------------------------------------|

E|--13-12-------------13^-13-----10----10---13p10----10--13p10---12---10-----|
B|--------13------------------10-----13^----------10----------10----13-------|
G|-----------12~-------------------------------------------------------------|
D|---------------------------------------------------------------------------|
A|---------------------------------------------------------------------------|
E|---------------------------------------------------------------------------|

E|----------------------------------------------------------------------|
B|---13^rb^----10-11--13---11---10h11p10---13^rb------------------------|
G|-----------------------------------------------------Fim-------------|
D|----------------------------------------------------------------------|
A|----------------------------------------------------------------------|
E|----------------------------------------------------------------------|
Acordes para:
    Composição: Mark Knopfler Colaboração e revisão:
    • anderson higo

    0 comentários

    mostrar mais comentários

    Conseguiu tocar?

    0 tocaram 0 ainda não

    Grave um vídeo tocando Expresso Love e mande pra gente!

    00:00 / 00:00
    outros vídeos desta música
    repetir qualidade Automático
    Outro vídeos desta música
    00:00 / 00:00
    Automático
    OK