Enviar cifraEntrar

Money for nothing

Dire Straits

Cifra: Principal
exibições 345.260
Tom: C
Riff Introdução:

(Parte 1)

E|---------------------------------------------------
B|------------6--------------------------------------
G|-7--7--5h7----------5--5-----3-----0---------------
D|-5--5--5-------5----7--5--5--3--3--0--0------------
A|---------------------------------------------------
E|---------------------------------------------------

   m  ↓  m    m  p    ↓  m  p  m  p  m  p
   i  m  i            m  i     i     i
   p  i               i

(Parte 2)

                 Bb5 C5 C5  Bb5      H.N
E|-----------------------------------------
B|-----------------------------------------
G|---0-x-3p0-----3--/5--5--\3--x--0--7-----
D|---0-x-3p0-x---3--/5--5--\3--x--0--------
A|---------------1--/3--3--\1--------------
E|-----------------------------------------

     m ↓ m   p   m      m      ↓  m  m
     i m i       i      i         i
       i         p      p

(Parte 3)
                                      H.N

E|---------------------------------------------------
B|-----------------8------------------7--------------
G|-7--7--5----5h7-----7--7p5--3p0--0--x--------------
D|-5--5--5h8--5----------5----3p0--0--x--------------
A|---------------------------------------------------
E|---------------------------------------------------

   m  ↓  m    m    m  p  m    m    m  ↓
   i  m  i    i          i    i    i  m
   p  i                               i

(Parte 4)

                    F5  G5
E|-----------------------------------------
B|-----------------------------------------
G|----0--0--3p0----------------------------
D|----0--0-------0--3--/5--5--5--5---------
A|------------------3--/5--5--5--5---------
E|------------------1--/3--3---------------

      m  ↓  m       m      m  m  m
      i  m       i  i      i  i  i
      p  i          p      p  ↓

(Repete tudo)

Primeira Parte:

(Parte 1)

                             Bb5 C5  Bb5
E|-----------------------------------------
B|-----------------------------------------
G|-0-0-0-0-------0-0-x-3p0---3--/5-5\3-0---
D|-0-0-0-0-0-3b¼-0-0-x-----0-3--/5-5\3-0---
A|---------------------------1--/3-3\1-----
E|-----------------------------------------


Variação:

E|---------------------------------------------------
B|---------------------------------------------------
G|-0---x-x---0---x-x---0---x-x---0---x-------0-------
D|-0---x-x---0---x-x---0---x-x---0---x---0-3b¼-0-----
A|---------------------------------------------------
E|---------------------------------------------------


(Parte 2)

E|---------------------------------------------------
B|---------------------------------------------------
G|-0--0--0-------0-------0--0--0--0-------0----------
D|-0-------3-0-3---------0--0-------3-0-3------------
A|---------------------------------------------------
E|---------------------------------------------------


(Parte 3)

                    F5  G5
E|-----------------------------------------
B|-----------------------------------------
G|-0-0-0-0-------0-------------------------
D|-0-0-----3-0-3----3--/5-5-5-5------------
A|------------------3--/5-5-5-5------------
E|------------------1--/3------------------


(Repete o riff do início)

(Partes 1, 2 e 4)

(Parte 4 - Variação no Riff Inicial)


E|---------------------------------------------------
B|---------------------------------------------------
G|----0--0--------0--3--2--0-----0--0--0--0----------
D|----0--0--0--3-------------3---0--0--0--0----------
A|---------------------------------------------------
E|---------------------------------------------------


Now look at that yo-yo's, that's the way you do it
                           Bb5 C5  C5 Bb5
You play the guitar on the M___T___V

That ain't workin', that's the way you do it
                        F5  G5
Money for nothin' and chicks for free

Now that ain't workin' that's the way you do it
                    Bb5 C5     C5  Bb5
Lemme tell ya them guys ain't dumb
Maybe get a blister on your little finger
Maybe get a blister on your thumb

Segunda Parte:

(Parte 1)

   Eb5                 Bb5
E|-----------------------------------------
B|-----------------------------------------
G|-8-8-8-8-8-8-8-8-----3-3-3-3-3-3-3-3-----
D|-8-8-8-8-8-8-8-8-----3-3-3-3-3-3-3-3-----
A|-6-6-6-6-6-6-6-6-----1-1-1-1-1-1-1-1-----
E|-----------------------------------------


(Parte 2)

   Eb5             F5
E|-----------------------------------------
B|-----------------------------------------
G|-8-8-8-8-8-8-8-8-10-10-10-10-10-10-10-10-
D|-8-8-8-8-8-8-8-8-10-10-10-10-10-10-10-10-
A|-6-6-6-6-6-6-6-6-8--8--8--8--8--8--8--8--
E|-----------------------------------------


(Parte 3)

E|-----------------------------------------
B|----------6------6-----------------------
G|-7--7-5h7------7---7-5\3-0-0-------------
D|-5--5-5-----5--5---5-5\3-0-0-------------
A|-----------------------------------------
E|-----------------------------------------


(Parte 4)

   C5                 D5
E|-----------------------------------------
B|-----------------------------------------
G|-5-5-5-5-5-5-5-5----7-7-7-7-7-7-7-7------
D|-5-5-5-5-5-5-5-5----7-7-7-7-7-7-7-7------
A|-3-3-3-3-3-3-3-3----5-5-5-5-5-5-5-5------
E|-----------------------------------------


(Parte 5)

   E5
E|-----------------------------------------
B|-----------------------------------------
G|-9--------------------------------9\-----
D|-9--------------------------------9\-----
A|-7---7-7-7-7---7-7-7-7---7-7-7-7--7\-----
E|-----------------------------------------

       pm....    pm....    pm....


Eb5                 Bb5
  We gotta install microwave ovens
Eb5                 F5
  Custom kitchen deliveries

We gotta move these refrigerators
C5                     D5          E5
  We gotta move these colour TV's

(A partir desse ponto, a música repete as mesmas partes na guitarra)

See the little faggot with the earring and the makeup
                   Bb5 C5    C5  Bb5
Yeah buddy that's his  own  hair
That little faggot got his own jet airplane
That little faggot he's a millionaire

Eb5                 Bb5
  We gotta install microwave ovens
Eb5                 F5
  Custom kitchen deliveries

We gotta move these refrigerators
C5                     D5          E5
  We gotta move these colour TV's


I shoulda learned to play the guitar
                       Bb5   C5    C5  Bb5
I shoulda learned to play  them  drums
Look at that mama, she got it stickin' in the camera
              F5  G5
Man we could have   some fun

And he's up there, what's that? Hawaiian noises?
                                Bb5  C5   C5 Bb5
Bangin' on the bongoes like a chim__pan__zee
That ain't workin' that's the way you do it
Get your money for nothin' get your chicks for free

Eb5                 Bb5
  We gotta install microwave ovens
Eb5                 F5
  Custom kitchen deliveries

We gotta move these refrigerators
C5                     D5          E5
  We gotta move these colour TV's

Now that ain't workin', that's the way you do it
                          Bb5 C5  C5 Bb5
You play the guitar on the M___T___V

Now that ain't workin', that's the way you do it
                        F5  G5
Money for nothin' and chicks for free
Money for nothin' and chicks for free
Money for nothin' and chicks for free
  • 1
  • 2
  • 3
  • 4
  • 5
  • 6
  • 7
  • 8
  • 9
  • 10
  • 11
  • 12
    Acordes para:
      Composição: Mark Knopfler / StingColaboração e revisão:
      • Sidmar
      • Juninho

      0 comentários

        mostrar mais comentários

        Conseguiu tocar?

        28tocaram0ainda não

        Grave um vídeo tocando Money for nothing e mande pra gente!

        00:00 / 00:00
        outros vídeos desta música
        repetirqualidadeautomática
        • automática
        Outro vídeos desta música
          Capítulos
          • Início
          • Tocando a música
          • Acordes da Introdução
          • Tocando Introdução
          • Treinamento Inicial (Mão Direita)
          • Ensinando Riff
          • Tocando Primeira Parte
          • Ensinando Primeira Parte
          • Acordes da Segunda Parte
          • Tocando Segunda Parte
          • Ensinando Segunda Parte
          • Encerramento
          00:00 / 00:00
          automática
          • automática
          3 versões de Tab de baixoexibiçõescontribuições
          1 versão de Tab de gaitaexibiçõescontribuições
          1 versão de Partiturasformatodownloadscontribuição
          fecharplay/pause subir/descer velocidade
            acordes
            fechar
            OK
            Feedback