Cifra Club

Dismembered

Dismember

Cifra: Principal (violão e guitarra)
Selo Cifra Club: esta cifra foi revisada para atender aos critérios oficiais da nossa Equipe de Qualidade.
tom: Bm
E|---------------------------------------------------------------------------|
B|-----6------------------------6--------------------------------------------|
G|--5-----5--6------5--------5-----5--6------5--------5----------------------| GUITAR 1.
D|---------------8-----6--8---------------8-----6--8-------------------------|
A|---------------------------------------------------------------------------|
E|---------------------------------------------------------------------------|

E|---------------------------------------------------------------------------|
B|---------------------------------------------------------------------------| GUITAR 2.
G|---------------------------------------------------------------------------|
D|-----5--6---5---3--------------------5--6----5--3--------------------------|
A|--3--5--6---5---3-----------------3--5--6----5--3--------------------------|
E|--3--3--4---3---1-----------------3--3--4----3--1--------------------------|


  Figure b)

E|---------------------------------------------------------------------------|
B|-----8--------------------------8------------------------------------------|
G|--7-----7--8-------7---------7-----7--8-------7----------7-----------------| GUITAR 1.
D|---------------10-----8--10---------------10-----8--10---------------------|
A|---------------------------------------------------------------------------|
E|---------------------------------------------------------------------------|

E|---------------------------------------------------------------------------|
B|---------------------------------------------------------------------------|
G|---------------------------------------------------------------------------| GUITAR 2.
D|-----7--8----7---5----------------------7--8---7---5-----------------------|
A|--5--7--8----7---5-------------------5--7--8---7---5-----------------------|
E|--5--5--6----5---3-------------------5--5--6---5---3-----------------------|


   Figure c)

E|---------------------------------------------------------------------------|
B|------7-------------------------7------------------------------------------| GUITAR 1.
G|---6-----6--7-------6--------6-----6--7-------6---------6------------------|
D|-----------------9-----7--9---------------9------7--9----------------------|
A|---------------------------------------------------------------------------|
E|---------------------------------------------------------------------------|

E|---------------------------------------------------------------------------|
B|---------------------------------------------------------------------------|
G|--4------------------------------------4-----------------------------------| GUITAR 2.
D|--4--4--5---4---2----------------------4--4--5---4---2---------------------|
A|--2--4--5---4---2----------------------2--4--5---4---2---------------------|
E|-----2--3---2---0-------------------------2--3---2---0---------------------|


and repeat:Figure a)
           Figure b)
           Figure c)
00:00 / 00:00
Outros vídeos desta música
Repetir
Outros vídeos desta música
10 exibições
    • ½ Tom
    • Am
    • Bbm
    • Bm
    • Cm
    • C#m
    • Dm
    • Ebm
    • Em
    • Fm
    • F#m
    • Gm
    • G#m
  • Adicionar à lista

Afinação da cifra

Afinador online

    0 comentários

    Ver todos os comentários

    Entre para o Cifra Club PRO

    Tenha acesso a benefícios exclusivos no App e no Site

    • Chega de anúncios

    • Mais recursos no app do Afinador

    • Atendimento Prioritário

    • Aumente seu limite de lista

    • Ajude a produzir mais conteúdo

    00:00 / 00:00

    Cifra Club Pro

    Aproveite o Cifra Club com benefícios exclusivos e sem anúncios
    Cifra Club Pro
    Aproveite o Cifra Club com benefícios exclusivos e sem anúncios
    OK