Cifra Club

Fleshless

Dismember

Cifra: Principal (violão e guitarra)
Selo Cifra Club: esta cifra foi revisada para atender aos critérios oficiais da nossa Equipe de Qualidade.
tom: C#m
E|------------------------|-----------------------|
B|------------------------|-----------------------|
G|------------------------|-----------------------|
D|------------------------|-----------------------|
A|-----------------2"--3--|-----------------------|
E|-3"---1"-3"-4"----------|-3"---1"-3"-4"---1"-4"-|



Riff 2
(0:17-0:25)

E|----------------------------|---------------------|
B|----------------------------|---------------------|
G|----------------------------|---------------------|
D|----------------------------|---------------------|
A|-5"---3"-5"-6"----------6---|-5"---3"-5"-6"---6-9-|
E|-----------------4"--7"-----|-----------------4-7-|



Riff 3
(0:25-0:33)

E|----------------|-----------------|
B|----------------|-----------------|
G|----------------|-----------------|
D|----------------|-----------------|
A|-5---3-5-6-9--10|-5---3-5-6--3--6-|
E|-3---1-3-4-7--8-|-3---1-3-4--1--4-|



Repeat riff 2 twice
(0:34-0:41)




Riff 4
(0:42-0:58)

E|-------------------------------------------------------|
B|-------------------------------------------------------|
G|-------------------------------------------------------|
D|-------------------------------------------------------|
A|-------1"----------5"------------1"-------------0"--1"-|
E|-3"-------3"--2"------6"---3"-------3"--2"---3"--------|




Riff 5
(0:59-1:06)

E|----------------------------------------------------------------|
B|----------------------------------------------------------------|
G|----------------------------------------------------------------|
D|----------------------------------------------------------------|
A|----3---2-2-3-----3---2---3-2-----3---2-2-3-3-----3---2---3-2---|
E|0-0---0-------1-1---1---1-----0-0---0---------1-1---1---1-------|
 . .   .       . .   .   .     . .   .         . .   .   .



Repeat riff 4 twice
(1:07-1:22)


Riff F
(not sure about this one)
(1:23-1:48)

E|----------------------------------------|
B|----------------------------------------|
G|----------------------------------------|
D|---------------7------------------------|
A|222222-5h7h8p7--8-7-333333-5h7p5---7h8--|
E|000000--------------111111-------6------|



Riff G
(Not 100% sure about this one)
(1:48-2:14)

E|---------------------------------------------------|
B|---------------------------------------------------|
G|---------------------------------------------------|
D|------------------7-----------------------7--------|
A|--3-4-3-1-3---7-8---8-7---3-4-3-1-3---7-8--875787--|
E|11-1-1-1-1--55-5-5-5-5--11-1-1-1-1--55-5-5---------|
 .. . . . .  .. . . . .  .. . . . .  .. . .


Repeat first half of riff C
(2:14-2:18)


Repeat riff D twice
(2:19-2:34)


Repeat riff G twice
(2:35-2:53)



Ending
(2:54-2:55)

E|---------|
B|---------|
G|---------|
D|---------|
A|-222222--|
E|-000000--|
Outros vídeos desta música
    4 exibições
      • ½ Tom
      • Am
      • Bbm
      • Bm
      • Cm
      • C#m
      • Dm
      • Ebm
      • Em
      • Fm
      • F#m
      • Gm
      • G#m
    • Adicionar à lista

    Afinação da cifra

    Afinador online

      0 comentários

      Ver todos os comentários

      Entre para o Cifra Club PRO

      Tenha acesso a benefícios exclusivos no App e no Site

      • Chega de anúncios

      • Mais recursos no app do Afinador

      • Atendimento Prioritário

      • Aumente seu limite de lista

      • Ajude a produzir mais conteúdo

      Cifra Club Pro

      Aproveite o Cifra Club com benefícios exclusivos e sem anúncios
      Cifra Club Pro
      Aproveite o Cifra Club com benefícios exclusivos e sem anúncios
      OK