Cifra Club

Massive Killing Capacity

Dismember

Cifra: Principal (violão e guitarra)
Selo Cifra Club: esta cifra foi revisada para atender aos critérios oficiais da nossa Equipe de Qualidade.
tom: Cm
Intro

PM -------  ----  ----   ----   --------- ----
E|---------------------------------------------------------------------------|
B|---------------------------------------------------------------------------|
G|---------------------------------------------------------------------------|
D|---------------------------------------------------------------------------|
A|---------6-----2-----3-----5-6---------6-----3--3h5-6-6-5h6-3--------------|
E|-0-0-0-0-4-0-0-0-0-0-1-0-0-3-4-0-0-0-0-4-0-0-1-----------------------------|
                                                                                        x2
PM -------  ----  ----   ----   --------- ----
E|---------------------------------------------------------------------------|
B|---------------------------------------------------------------------------|
G|---------------------------------------------------------------------------|
D|---------------------------------------------------------------------------|
A|---------6-----2-----3-----5-6---------6-----3--------------2--------------|
E|-0-0-0-0-4-0-0-0-0-0-1-0-0-3-4-0-0-0-0-4-0-0-1--2h3-4-4-3h4----------------|

Verse

PM ----------------------------------------------------------------------
E|---------------------------------------------------------------------------|
B|---------------------------------------------------------------------------|
G|---------------------------------------------------------------------------|
D|-----------------6-6-6-6-6-6-6-6-4-4-4-4-4-4-4-----------------------------|
A|-4-4-4-4-4-4-4-4-------------------------------7-7-7-7-6-6-6-6-7-7-7-7-----|
E|---------------------------------------------------------------------------|
                                                                                        x2
PM ---------------------------------------------------------------------- 
E|---------------------------------------------------------------------------|
B|---------------------------------------------------------------------------|
G|---------------------------------------------------------------------------|
D|---------------------------------------------------------------------------|
A|-----------------6-6-6-6-6-6-6-6-7-7-7-7-4-4-4-4-7-7-7-7-7-7-7-6-6-6-6-----|
E|-4-4-4-4-4-4-4-4-----------------------------------------------------------|


Intro

PM -------  ----  ----   ----   --------- ----
E|---------------------------------------------------------------------------|
B|---------------------------------------------------------------------------|
G|---------------------------------------------------------------------------|
D|---------------------------------------------------------------------------|
A|---------6-----2-----3-----5-6---------6-----3--3h5-6-6-5h6-3--------------|
E|-0-0-0-0-4-0-0-0-0-0-1-0-0-3-4-0-0-0-0-4-0-0-1-----------------------------|
                                                                                        x2
PM -------  ----  ----   ----   --------- ----
E|---------------------------------------------------------------------------|
B|---------------------------------------------------------------------------|
G|---------------------------------------------------------------------------|
D|---------------------------------------------------------------------------|
A|---------6-----2-----3-----5-6---------6-----3--------------2--------------|
E|-0-0-0-0-4-0-0-0-0-0-1-0-0-3-4-0-0-0-0-4-0-0-1--2h3-4-4-3h4----------------|


Chorus

PM                           ---
E|---------------------------------------------------------------------------|
B|---------------------------------------------------------------------------|
G|---------------------------------------------------------------------------|
D|--------4-----------3------------------------------------------------------| x4
A|--2-----2-----5-----1------6-5-------7-8----5-7----------------------------|
E|--0-----------3------------4-3----0---------------/------------------------|


Intro

PM -------  ----  ----   ----   --------- ----
E|---------------------------------------------------------------------------|
B|---------------------------------------------------------------------------|
G|---------------------------------------------------------------------------|
D|---------------------------------------------------------------------------|
A|---------6-----2-----3-----5-6---------6-----3--3h5-6-6-5h6-3--------------|
E|-0-0-0-0-4-0-0-0-0-0-1-0-0-3-4-0-0-0-0-4-0-0-1-----------------------------|
                                                                                        x2
PM -------  ----  ----   ----   --------- ----
E|---------------------------------------------------------------------------|
B|---------------------------------------------------------------------------|
G|---------------------------------------------------------------------------|
D|---------------------------------------------------------------------------|
A|---------6-----2-----3-----5-6---------6-----3--------------2--------------|
E|-0-0-0-0-4-0-0-0-0-0-1-0-0-3-4-0-0-0-0-4-0-0-1--2h3-4-4-3h4----------------|


Verse

PM ----------------------------------------------------------------------
E|---------------------------------------------------------------------------|
B|---------------------------------------------------------------------------|
G|---------------------------------------------------------------------------|
D|-----------------6-6-6-6-6-6-6-6-4-4-4-4-4-4-4-----------------------------|
A|-4-4-4-4-4-4-4-4-------------------------------7-7-7-7-6-6-6-6-7-7-7-7-----|
E|---------------------------------------------------------------------------|
                                                                                        x2
PM ---------------------------------------------------------------------- 
E|---------------------------------------------------------------------------|
B|---------------------------------------------------------------------------|
G|---------------------------------------------------------------------------|
D|---------------------------------------------------------------------------|
A|-----------------6-6-6-6-6-6-6-6-7-7-7-7-4-4-4-4-7-7-7-7-7-7-7-6-6-6-6-----|
E|-4-4-4-4-4-4-4-4-----------------------------------------------------------|


Intro

PM -------  ----  ----   ----   --------- ----
E|---------------------------------------------------------------------------|
B|---------------------------------------------------------------------------|
G|---------------------------------------------------------------------------|
D|---------------------------------------------------------------------------|
A|---------6-----2-----3-----5-6---------6-----3--3h5-6-6-5h6-3--------------|
E|-0-0-0-0-4-0-0-0-0-0-1-0-0-3-4-0-0-0-0-4-0-0-1-----------------------------|
                                                                                        x2
PM -------  ----  ----   ----   --------- ----
E|---------------------------------------------------------------------------|
B|---------------------------------------------------------------------------|
G|---------------------------------------------------------------------------|
D|---------------------------------------------------------------------------|
A|---------6-----2-----3-----5-6---------6-----3--------------2--------------|
E|-0-0-0-0-4-0-0-0-0-0-1-0-0-3-4-0-0-0-0-4-0-0-1--2h3-4-4-3h4----------------|

Outro

PM -----------      ----------       -----      ----
E|---------------------------------------------------------------------------|
B|---------------------------------------------------------------------------|
G|---------------------------------------------------------------------------|
D|-----------------------------------------5-4--------5-4--------------------| x4
A|-------------5-6--------------6-5--------3-2--------3-2--------------------|
E|-0-0-0-0-0-0-3-4--0-0-0-0-0-0-4-3--0-0-0------0-0-0------------------------|



************************************

| h   Hammer-on
| p   Pull-off
| PM  Palm mute
00:00 / 00:00
Outros vídeos desta música
Repetir
Outros vídeos desta música
3 exibições
    • ½ Tom
    • Am
    • Bbm
    • Bm
    • Cm
    • C#m
    • Dm
    • Ebm
    • Em
    • Fm
    • F#m
    • Gm
    • G#m
  • Adicionar à lista

Afinação da cifra

Afinador online

    0 comentários

    Ver todos os comentários

    Entre para o Cifra Club PRO

    Tenha acesso a benefícios exclusivos no App e no Site

    • Chega de anúncios

    • Mais recursos no app do Afinador

    • Atendimento Prioritário

    • Aumente seu limite de lista

    • Ajude a produzir mais conteúdo

    00:00 / 00:00

    Cifra Club Pro

    Aproveite o Cifra Club com benefícios exclusivos e sem anúncios
    Cifra Club Pro
    Aproveite o Cifra Club com benefícios exclusivos e sem anúncios
    OK