Cifra Club

Where Dead Angels Lie

Dissection

Cifra: Principal (violão e guitarra)
tom: E
"WHERE DEAD ANGELS LIE" from "Storm of the light's bane"

Intro\ Acoustic Guitar 
E |-----------------------------------------------3-----------------------------|
B |------------------------0-------------------------3--------------------------|
G |------------------0---------0------------------------3-----------------------|
D |-------------2------------------------------------------3--------------------|
A |---------2-------------------------------------------------3-----------------|
E |----0------------------------------------------------------------------------|

E |----------------------------------------------------------------0------------|
B |------------------------0----------------------------------4-------4---------|
G |-------------------0--------0------------------------5-----------------------|
D |---------------2---------------------------------5---------------------------|
A |----------2---------------------------------3--------------------------------|
E |--1--0-----------------------------------------------------------------------|

Riff 1 
E |--------------------3---------------------------------------------------------|
B |------------------------3-----------------------------------------------------|
G |------------------------------3-----------------------------------------------|
D |----------------------------------3-----------------------------5--5----------|
A |--2-----2-------------------------------------3-----2---2-----3--3------------|
E |--0-----0-------------------------------------1-----0---0---------------------|

Riff 2 2°Guitar
E |--------------------------------------------------------------------------------------|
B |--------------------------------------------------------------------------------------|
G |--------------------------------------------------------------------------------------|
D |-----------------------------------------7--------------------------------------------|
A |-7----10----7-----10----7----10------------9----10----7---7-----10---7----9---10----5-|
E |--------------------------------------------------------------------------------------|

Riff 3
E |-----------------------------------------------------------------------------------------|
B |-----------------------------------------------------------------------------------------|
G |----------------------------------------2------------------------------------------------|
D |---2----5----2-----5-----2-----5-----------5-----6-----2-----2-----5----2----5----6----0-|
A |-----------------------------------------------------------------------------------------|
E |-----------------------------------------------------------------------------------------|

Riff 4 Very Fast 
E |-------------------------------------------------------------------------------------------|
B |-------------------------------------------------------------------------------------------|
G |-------------------------------------------------------------------------------------------|
D |-------------------------------------------------------------------------------------------|
A |------------------------------------------10--10------------------------------------10--10-|
E |-12--12--12--12--12--12--12--12--------------12--12--12--12--12--12--12--12----------------|

E |------------------------------------------------------------------------------------------|
B |------------------------------------------------------------------------------------------|
G |------------------------------------------------------------------------------------------|
D |------------------------------------------------------------------------------------------|
A |---------------------------------------------10--10--10--10--12--12--12--12--12--12-12-12-|
E |-12--12--12--12--12--12--12--12-----------------------------------------------------------|
 
E |------------------------------------------------------------------------------------------|
B |------------------------------------------------------------------------------------------|
G |------------------------------------------------------------------------------------------|
D |------------------------------------------------------------------------------------------|
A |-9--9--9--9---10--10--10--10--10--10--10-10-----------------------------------------------|
E |----------------------------------------------------------12--12--12--12--12--12--12-12---|

E |------------------------------------------------------------------------------------------|
B |------------------------------------------------------------------------------------------|
G |------------------------------------------------------------------------------------------|
D |------------------------------------------------------------------------------------------|
A |-10--10--10--10------------------------9--9--9--9--10--10--10-10--------------------------|
E |----------------------12--12--12--12----------------------------------------10--10--10-10-|
 
Riff 4
E |------------------------------------------------------------------------------------------|
B |-----8----7-------------------------------------------------------------------------------|
G |-----9--------8-------------5------4------------------------------------------------------|
D |-----9-------------8--------5------4------2-----------------------------------------------|
A |-7--------------------------3------2------2-----------------------------------------------|
E |--------------------------------------------0---------------------------------------------|

Riff 5 
E |------------------------------------------------------------------------------------------|
B |------------------------------------------------------------------------------------------|
G |------------------------------------------------------------------------------------------|
D |------------------------------------------------------------------------------------------|
A |-7---10---9---7---9-------------------10---12---9----------7/5----------------------------|
E |--------------------------8---7---0----------------------10-------------------------------|
 
2° Guitar
E |------------------------------------------------------------------------------------------|
B |------------------------------------------------------------------------------------------|
G |------------------------------------------------------------------------------------------|
D |-----------------------------5----4---------------------------7---------------------------|
A |-2----5----4----2----4----3----2-----2----5----7----4----5----2---------------------------|
E |-0----3----2----0----2----------------0----3----5----2----------0-------------------------|

Riff 6
E |-------------------------------------------------------------------------------------------|
B |-------------------------------------------------------------------------------------------|
G |-------------------------------------------------------------------------------------------|
D |-------------------------------------------------------------------9----7----9-------------|
A |-2----2----9----9----2----2---10---10---2----2----9----9----7----5----7--------------------|
E |-0----0----7----7----0----0----8----8----0----0----7----7----------------------------------|
 
2° Guitar
E |-------------------------------------------------------------------------------------------|
B |-------------------------------------------------------------------------------------------|
G |-------------------------------------------------------------------------------------------|
D |----5---5-------------------------5---5---6---7-------5---5---5---5---5---------------5----|
A |7------------7---5---5---5---7--------------------7-----------------------7---5---7-------7|
E |-------------------------------------------------------------------------------------------|
 
Riff 7
E |-------------------------------------------------------------------------------------------|
B |-------------------------------------------------------------------------------------------|
G |-------------------------------------------------------------------------------------------|
D |-------------------------------------------------------------------------------------------|
A |-2---2----9----9----5----5----7----7----2----2----9----9----10---9----2--------------------|
E |-0---0----7----7----3----3----5----5----0----0----7----7-----8----7----0-------------------|
 
Acoustic Guitar
E |--------------------7-----------------6--------------3-------------|
B |---------------8--------8-----------------7--------------4---------|
G |----------9-----------------9-----------------8--------------5-----|
D |-----9-------------------------------------------------------------|
A |-7-----------------------------------------------------------------|
E |-------------------------------------------------------------------|
 
E |--------------------3--------2-------------------------------------|
B |---------------4-----------------3---------------------------------|
G |----------5--------------------------4-----------------------------|
D |-----5------------------------------------4------------------------|
A |-3-----------------------------------------------------------------|
E |-------------------------------------------------------------------|

Riff 8 a
E |-------------------------------------------------------------------|
B |-------------------------------------------------------------------|
G |-------------------------------------------------------------------|
D |----------------------------------------------7----9----5----------|
A |-2----2----2-----7----9----2----2----2----5----7----3--------------|
E |-0----0----0-----5----7----0----0----0-----------------------------|
 
Riff 8 b
E |-------------------------------------------------------------------|
B |-------------------------------------------------------------------|
G |-------------------------------------------------------------------|
D |-------------------------------------------------------------------|
A |-2---2----2---7----9----2----2----2--------9-----------------------|
E |-0---0----0---5----7----0----0----0----7--------7------------------|
 


WHERE DEAD ANGELS LIE

In the dawn an angel was dancing
surrounded by an aura of light
But in the shadows something was watching
and with patience awaiting the night
Angel whispers: "Mournful night, attractive night,
your beauty obsesses me"
An angel bewitched by the shadows
Seduced by the whispering lies
Chorus:
A spell was cast and the sky turned red
The angel's heart froze to ice
The blackness that falls is coming to stay
Under the snow lies angels so cold
Dark has passed and a cold morning breeze
is sweeping all over the plain
On the ground lies an angel with skin so pale
On her face an image of pain
Snow is now falling to the frozen ground
The angel is covered by white
Frost is spreading accross the plain
to welcome the eternal night
The dress is white with crystals of ice
and frozen roses so red
Roses of blood from an innocent soul
On the plain lies an angel dead
Chorus:
A spell was cast and the sky turned red
The angel's heart froze to ice
In the gloomy sky black clouds were gathering
The silence was broken by cries
A spell was cast and the sky turned red
and the angel's heart froze to ice
In the gloomy sky - The silence where dead angels lie
Touch the snow... Caress the lifeless sculptures
Die!!!
Chorus:
The blackness that falls is coming to stay
Under the snow lies angels so cold
Yet with each crystal of frost that is falling
another story is told
A spell was cast and the sky turned red
The angel's heart froze to ice
In the gloomy sky - The silence where dead angels lie



For correction *
Compositor não encontrado.
1.537 exibições
    • ½ Tom
    • A
    • Bb
    • B
    • C
    • Db
    • D
    • Eb
    • E
    • F
    • F#
    • G
    • Ab
  • Adicionar à lista

    0 comentários

    Ver todos os comentários

    Conseguiu tocar?

    0 Tocaram 0 Ainda não

    Grave um vídeo tocando Where Dead Angels Lie e nos envie!

    00:00 / 00:00
    Outros vídeos desta música
    Repetir Qualidade Automático
    Outros vídeos desta música
    00:00 / 00:00
    Automático

    Cifra Club Pro

    Aproveite o Cifra Club com benefícios exclusivos e sem anúncios
    Cifra Club Pro
    Aproveite o Cifra Club com benefícios exclusivos e sem anúncios
    OK