Cifra Club

Aprenda

Down With The Sickness

Disturbed

Cifra: Principal (violão e guitarra)
Tom: C#
Afinação: Eb,Bb,Gb,Db,Ab,Db

Num tenho mta certeza qto a isso nao... mas axo q ta bem perto :-)

Introduçao(acompanha a bateria e tocado antes do primeiro grito do vocalista)
 PM.
|--------------------------------------|
|--------------------------------------|
|--------------------------------------|
|-2-5-2-3-2--2-5-2-3-2--2-5-2-3-2-5-2-3|
|--------------------------------------|
|--------------------------------------|
 PM.                              
|----------------------|    |-----------------|
|----------------------|    |-----------------|
|----------------------|3X  |-----------------|
|-2-5-2-3-2--2-5-2-3-2-|    |-2-5-2-3--2-3333-|
|-2-5-2-3-2--2-5-2-3-2-|    |-2-5-2-3--2-3333-|
|-2-5-2-3-2--2-5-2-3-2-|    |-2-5-2-3--2-3333-|

Verso
 PM.
|-------------------------| ()-> Só na primera vez
|-------------------------|
|-------------------------|
|-(22222)-22222-222222222-|
|-(22222)-22222-222222222-|
|-(22222)-22222-222222222-|

|---------------------------------------|
|---------------------------------------|
|---------------------------------------|
|---------------------------------------|
|-2-2-2-2-2-----2-2-2-2-2-----3-3-------|
|-2-2-2-2-2-----2-2-2-2-2-----3-3-------|

Sem abafar
|-------------------------------------|
|-------------------------------------|
|-------------------------------------|
|-2-5-2-3-2-----2-2-2-2-2-----2-2-2-2-|    
|-2-5-2-3-2-----2-2-2-2-2-----2-2-2-2-|    
|-2-5-2-3-2-----2-2-2-2-2-----2-2-2-2-|    

|---------------------------------------|
|---------------------------------------|
|---------------------------------------|
|---------------------------------------|
|-2-5-2-3-2-----2-2-2-2-2-----2-3-------|
|-2-5-2-3-2-----2-2-2-2-2-----2-3-------|

Refrão

|---------------------------------------| |-----------------------------------------|
|------------------------------| |--------------------------------|
|------------------------------------| |--------------------------------------|
|-2--2-3-2------2-2-3-2--2--2-3-2-------| |-2--2-2-3-2------2-2-3-2--2--2-3-2-------|
|-2--2-3-2------2-2-3-2--2--2-3-2-------| |-2--2-2-3-2------2-2-3-2--2--2-3-2-------|
|-2--2-3-2------2-2-3-2--2--2-3-2-------| |-2--2-2-3-2------2-2-3-2--2--2-3-2-------|

|-----------------------------------------| |--------------------------------|
|--------------------------------| |--------------------------|
|--------------------------------------| |--------------------------------|
|-2--2-2-3-2------2-2-3-2--2--2-3-2-------| |-2--2-2-3-2------2--------------|
|-2--2-2-3-2------2-2-3-2--2--2-3-2-------| |-2--2-2-3-2------2--------------|
|-2--2-2-3-2------2-2-3-2--2--2-3-2-------| |-2--2-2-3-2------2---/19~~~~----|

repete mas da ultima vez dexando o ultimo acorde soar, fazendo depois o longo slide

|--------------|------------------|
|--------------|------------------|
|--------------|------------------|
|-2------------|------------------|
|-2------------|-----------/17-\--|

repete o verso e o refrao, soh q dessa vez ao inves desse finalzinho vc vem pra isso

|--------------------------------------------------------------------|
|--------------------------------------------------------------------|
|--------------------------------------------------------------------|
|--------------------------------------------------------------------|
|---------------2/3--------4----4/7~~~---X-X-3/4------3----X-X-------|
|-4~~~~--X-X--------------------------------------------------2------| 3X

|--------------------------------------------------------------------|
|--------------------------------------------------------------------|
|--------------------------------------------------------------------|
|-----------------------------------------------6-------5----X-X-------|
|---------------2/3---------4----4/7~~~~---X-X--4------3----X-X--2-----|
|-4~~~~~--X-X-----------------------------------------------------2----|

|---------------------------------------|-------------------------------|
|---------------------------------------|-------------------------------|
|------------------------------------6--|-------------------------------|
|---------------5---------6----------4--|---------------5---------6-----|
|-4--------X-X--3---------4-----X-X-----|-4--------X-X--3---------4-----|
|-4--------X-X------------------X-X-----|-4--------X-X------------------| 8X

Depois
 PM.
|----------------------------------------|
|----------------------------------------|
|----------------------------------------|
|----------------------------------------| 3X
|-9-12-9-10-9---9-12-9-10-9---9-12-9-10--|
|----------------------------------------|

|-------------------------|
|-------------------------|
|-------------------------|
|-------------------------|
|-9-12-9-10-9---9-12-9-10-|
|-------------------------|
 
E pra finalizar

|-------------------------------|
|-------------------------------|
|-------------------------------| 3X
|-4-7-4-5-4--4-7-4-5-4--4-7-4-5-|
|-4-7-4-5-4--4-7-4-5-4--4-7-4-5-|
|-4-7-4-5-4--4-7-4-5-4--4-7-4-5-|

|-----------------|
|-----------------|
|-----------------|
|-4-7-4-5--4-5555-|
|-4-7-4-5--4-5555-|
|-4-7-4-5--4-5555-|
Composição de Disturbed
Colaboração e revisão:
  • George Euzébio
  • Fillipe Dobbin
34.272 exibições
    • ½ Tom
    • A
    • Bb
    • B
    • C
    • Db
    • D
    • Eb
    • E
    • F
    • F#
    • G
    • Ab
  • Adicionar à lista

    0 comentários

    Mostrar mais comentários

    Conseguiu tocar?

    6 Tocaram 0 Ainda não

    Grave um vídeo tocando Down With The Sickness e mande pra gente!

    00:00 / 00:00
    outros vídeos desta música
    repetir qualidade Automático
    Outros vídeos desta música
    00:00 / 00:00
    Automático
    OK