Cifra Club

Aprenda

Immortalized

Disturbed

Cifra: Principal (violão e guitarra)
Tom: B

|--------------------------------------------------------------------------------------------------------|
|                                          INTRO (00:00-00:15)                                           |
|--------------------------------------------------------------------------------------------------------|

Guitars 1 and 2 (w/ dist)

C#|------------------------------------|------------------------------------|------------------------------------------------|C#|------------------------------------|------------------------------------|
G#|------------------------------------|------------------------------------|------------------------------------------------|G#|------------------------------------|------------------------------------|
E|--------------------------------|-------------------------------------------|
B|-----------------7---------------|----------------8-------------------------|
F#|-------------------5----------------|-------------------6----------------|------------------------------------------------|F#|-------------------5----------------|-------------------6----------------|
B|--3-p0--0--0--0--0-----0--0--0--0---0-|-3-p0--0--0-0--0-----0--0--5--0--6---|
          *  *  *  *     *  *  *  *  *         *  *  *  *     *  *     *
C#|------------------------------------|------------------------------------|---------------------------------------------------|C#|------------------------------------|------------------------------------|
G#|------------------------------------|------------------------------------|---------------------------------------------------|G#|------------------------------------|------------------------------------|
E|--------------------------------|--------------------------------------------|
B|-----------------7---------------|-------------------------------------------|
F#|-------------------5----------------|-6-----------------5----------------|---------------------------------------------------|F#|-------------------5----------------|-6-----------------5----------------|
B|--3-p0--0--0--0--0-----0--0--0--0---0-|----0--5--0--5--6-----0--0--5-h6--6---|
          *  *  *  *     *  *  *  *  *      *     *           *  *    
C#|------------------------------------|------------------------------------|------------------------------------------------|C#|------------------------------------|------------------------------------|
G#|------------------------------------|------------------------------------|------------------------------------------------|G#|------------------------------------|------------------------------------|
E|--------------------------------|-------------------------------------------|
B|-----------------7---------------|----------------8-------------------------|
F#|-------------------5----------------|-------------------6----------------|------------------------------------------------|F#|-------------------5----------------|-------------------6----------------|
B|--3-p0--0--0--0--0-----0--0--0--0---0-|-3-p0--0--0-0--0-----0--0--5--0--6---|
          *  *  *  *     *  *  *  *  *         *  *  *  *     *  *     *
C#|------------------------------------|------------------------------------|---------------------------------------------------|C#|------------------------------------|------------------------------------|
G#|------------------------------------|------------------------------------|---------------------------------------------------|G#|------------------------------------|------------------------------------|
E|--------------------------------|--------------------------------------------|
B|--8--8--8--8--8--8--3--3--3--3--3---3-|-6--6--6--6--6--6--3--3--3--1--1--1---|
F#|-8--8--8--8--8--8--3--3--3--3--3--3-|-6--6--6--6--6--6--3--3--3--1--1--1-|---------------------------------------------------|F#|-8--8--8--8--8--8--3--3--3--3--3--3-|-6--6--6--6--6--6--3--3--3--1--1--1-|
B|--8--8--8--8--8--8--3--3--3--3--3---3-|-6--6--6--6--6--6--3--3--3--1--1--1---|

|--------------------------------------------------------------------------------------------------------|
|                                          VERSE (00:15-00:44)                                           |
|--------------------------------------------------------------------------------------------------------|

Guitars 1 and 2 (w/ dist)
                                                                       -------------|
C#|------------------------------------|------------------------------------||-----------------------------------------------|C#|------------------------------------|------------------------------------|       |
G#|------------------------------------|------------------------------------||-----------------------------------------------|G#|------------------------------------|------------------------------------|       |
E|--------------------------------|------------------------------|-------------|
B|-----------------7---------------|----------------8-------------|------------|
F#|-------------------5----------------|-------------------6----------------||-----------------------------------------------|F#|-------------------5----------------|-------------------6----------------|       |
B|--3-p0--0--0--0--0-----0--0--0--0---0-|-3-p0--0--0-0--0-----0--0-5--0--6-|---|
          *  *  *  *     *  *  *  *  *         *  *  *  *     *        *            |
C#|------------------------------------|------------------------------------||--------------------------------------------------|C#|------------------------------------|------------------------------------|       |
G#|------------------------------------|------------------------------------||--------------------------------------------------|G#|------------------------------------|------------------------------------|       |
E|--------------------------------|--------------------------------|-------------|
B|-----------------7---------------|--------------------------------|------------|
F#|-------------------5----------------|-6-----------------5----------------||--------------------------------------------------|F#|-------------------5----------------|-6-----------------5----------------|       |
B|--3-p0--0--0--0--0-----0--0--0--0---0-|----0--5--0--5--6-----0--0--5-h6--6-|---|
          *  *  *  *     *  *  *  *  *      *     *           *  *                  | x2
C#|------------------------------------|------------------------------------||-----------------------------------------------|C#|------------------------------------|------------------------------------|       |
G#|------------------------------------|------------------------------------||-----------------------------------------------|G#|------------------------------------|------------------------------------|       |
E|--------------------------------|------------------------------|-------------|
B|-----------------7---------------|----------------8-------------|------------|
F#|-------------------5----------------|-------------------6----------------||-----------------------------------------------|F#|-------------------5----------------|-------------------6----------------|       |
B|--3-p0--0--0--0--0-----0--0--0--0---0-|-3-p0--0--0-0--0-----0--0-5--0--6-|---|
          *  *  *  *     *  *  *  *  *         *  *  *  *     *        *            |
C#|------------------------------------|------------------------------------||----------------------------------------------------|C#|------------------------------------|------------------------------------|       |
G#|------------------------------------|------------------------------------||----------------------------------------------------|G#|------------------------------------|------------------------------------|       |
E|--------------------------------|-------------------------------|--------------|
B|--8--8--8--8--8--8--3--3--3--3--3---3-|-6--6--6--6--6--6--3--3--3--1--1--1-|---|
F#|-8--8--8--8--8--8--3--3--3--3--3--3-|-6--6--6--6--6--6--3--3--3--1--1--1-||----------------------------------------------------|F#|-8--8--8--8--8--8--3--3--3--3--3--3-|-6--6--6--6--6--6--3--3--3--1--1--1-|       |
B|--8--8--8--8--8--8--3--3--3--3--3---3-|-6--6--6--6--6--6--3--3--3--1--1--1-|---|
                                                                       -------------|

|--------------------------------------------------------------------------------------------------------|
|                                        PRE-CHORUS (00:44-00:58)                                        |
|--------------------------------------------------------------------------------------------------------|

Guitars 1 and 2 (w/ dist)

C#|------------------------------------|-----------------------------------|-----------------------------------------------|C#|------------------------------------|-----------------------------------|
G#|------------------------------------|-----------------------------------|-----------------------------------------------|G#|------------------------------------|-----------------------------------|
E|-------------------------------|----------------------------------------|
B|------------7--7--7--5--5--8-p7-----|-----------------------------------|
F#|----------------------------------8-|-----------------------------------|-----------------------------------------------|F#|----------------------------------8-|-----------------------------------|
B|--5--5--5--5----------------------|-8--8--8--8-------0--0--0--0--7--8---|
    *  *  *  *  *  *  *  *  *            *  *  *  *       *  *  *  *  *  *
C#|------------------------------------|------------------------------------|-----------------------------------------------|C#|------------------------------------|------------------------------------|
G#|------------------------------------|------------------------------------|-----------------------------------------------|G#|------------------------------------|------------------------------------|
E|-------------------------------|-----------------------------------------|
B|------------7--7--7--5--5--8-p7-----|------------------------------------|
F#|----------------------------------8-|------------------------------------|-----------------------------------------------|F#|----------------------------------8-|------------------------------------|
B|--5--5--5--5----------------------|-8--8--8--8-------0--0--0--8--8--10---|
    *  *  *  *                           *  *  *  *       *  *  *  *  *  *
C#|------------------------------------|-----------------------------------|-----------------------------------------------|C#|------------------------------------|-----------------------------------|
G#|------------------------------------|-----------------------------------|-----------------------------------------------|G#|------------------------------------|-----------------------------------|
E|-------------------------------|----------------------------------------|
B|------------7--7--7--5--5--8-p7-----|-----------------------------------|
F#|----------------------------------8-|-----------------------------------|-----------------------------------------------|F#|----------------------------------8-|-----------------------------------|
B|--5--5--5--5----------------------|-8--8--8--8-------0--0--0--0--7--8---|
    *  *  *  *                           *  *  *  *       *  *  *  *  *  *
C#|------------------------------------|------------------------------------|--------------------------------------|C#|------------------------------------|------------------------------------|
G#|------------------------------------|------------------------------------|--------------------------------------|G#|------------------------------------|------------------------------------|
E|--------------------------------|-5-5--5--5--5--5--8--8--8--8--8--8--------|
B|--6--6--6--6--6--6--6--6--6--6--6--6|-5--5--5--5--5--5--8--8--8--8--8--8---|
F#|-6--6--6--6--6--6--6--6--6--6--6--6-|-3--3--3--3--3--3--6--6--6--6--6--6-|--------------------------------------|F#|-6--6--6--6--6--6--6--6--6--6--6--6-|-3--3--3--3--3--3--6--6--6--6--6--6-|
B|--6--6--6--6--6--6--6--6--6--6--6--6|--------------------------------------|

|--------------------------------------------------------------------------------------------------------|
|                                          CHORUS (00:58-01:27)                                          |
|--------------------------------------------------------------------------------------------------------|

Guitars 1 and 2 (w/ dist)

C#|--------------------------------|----------------------------------|----------------------------------------|C#|--------------------------------|----------------------------------|
G#|--------------------------------|----------------------------------|----------------------------------------|G#|--------------------------------|----------------------------------|
E|--------------------------|-----------------------------------------|
B|--5---5---------5--5--------|-0---0---------------------------------|
F#|-5---5--5--5--5--5---5--5--5--5-|-0---0--0--0--0--3--3--3--7--7--7-|----------------------------------------|F#|-5---5--5--5--5--5---5--5--5--5-|-0---0--0--0--0--3--3--3--7--7--7-|
B|--5---5--5--5--5-5--5--5--5--5-|-0---0--0--0--0--3--3--3--7--7--7---|
           *  *  *         *  *  *          *  *  *  *  *  *  *  *  *
C#|--------------------------------|--------------------------------|-------------------------------------|C#|--------------------------------|--------------------------------|
G#|--------------------------------|--------------------------------|-------------------------------------|G#|--------------------------------|--------------------------------|
E|--------------------------|--------------------------------------|
B|--8---8---------8--8--------|-1---1---------1---1----------------|
F#|-8---8--8--8--8--8---8--8--8--8-|-1---1--1--1--1--1---1--1--1--1-|-------------------------------------|F#|-8---8--8--8--8--8---8--8--8--8-|-1---1--1--1--1--1---1--1--1--1-|
B|--8---8--8--8--8-8--8--8--8--8-|-1---1--1--1-1--1---1--1--1--1---|
           *  *  *         *  *  *          *  *  *         *  *  *
C#|--------------------------------|----------------------------------|-----------------------------------|C#|--------------------------------|----------------------------------|
G#|--------------------------------|----------------------------------|-----------------------------------|G#|--------------------------------|----------------------------------|
E|--------------------------|------------------------------------|
B|--2---2---------2--2--------|-2---2------------------4--4--4---|
F#|-2---2--2--2--2--2---2--2--2--2-|-2---2--2--2--2--5--5--5--2--2--2-|-----------------------------------|F#|-2---2--2--2--2--2---2--2--2--2-|-2---2--2--2--2--5--5--5--2--2--2-|
B|--2---2--2--2--2-2--2--2--2--2-|-2---2--2--2--2--5--5--5-------|
           *  *  *         *  *  *          *  *  *  *  *  *  *  *  *
C#|--------------------------------|------------------------------------|-----------------------|C#|--------------------------------|------------------------------------|
G#|--------------------------------|------------------------------------|-----------------------|G#|--------------------------------|------------------------------------|
E|--------------------------|5-s7--7-7s5--5-5s3--3-3-s5-s3----|
B|--4---4---------4--4-------|-x--x-x-x--x-x-x--x-x-x--x--x---|
F#|-5---5--5--5--5--5---5--5--5--5-|-3-s5--5--5-s3--3--3-s1--1--1-s3-s1-|-----------------------|F#|-5---5--5--5--5--5---5--5--5--5-|-3-s5--5--5-s3--3--3-s1--1--1-s3-s1-|
B|--4---4--4--4--4-4--4--4--4-4-|-----------------------------|
           *  *  *         *  *  *      
C#|--------------------------------|----------------------------------|----------------------------------------|C#|--------------------------------|----------------------------------|
G#|--------------------------------|----------------------------------|----------------------------------------|G#|--------------------------------|----------------------------------|
E|--------------------------|-----------------------------------------|
B|--5---5---------5--5--------|-0---0---------------------------------|
F#|-5---5--5--5--5--5---5--5--5--5-|-0---0--0--0--0--3--3--3--7--7--7-|----------------------------------------|F#|-5---5--5--5--5--5---5--5--5--5-|-0---0--0--0--0--3--3--3--7--7--7-|
B|--5---5--5--5--5-5--5--5--5--5-|-0---0--0--0--0--3--3--3--7--7--7---|
           *  *  *         *  *  *          *  *  *  *  *  *  *  *  *
C#|--------------------------------|--------------------------------|-------------------------------------|C#|--------------------------------|--------------------------------|
G#|--------------------------------|--------------------------------|-------------------------------------|G#|--------------------------------|--------------------------------|
E|--------------------------|--------------------------------------|
B|--8---8---------8--8--------|-1---1---------1---1----------------|
F#|-8---8--8--8--8--8---8--8--8--8-|-1---1--1--1--1--1---1--1--1--1-|-------------------------------------|F#|-8---8--8--8--8--8---8--8--8--8-|-1---1--1--1--1--1---1--1--1--1-|
B|--8---8--8--8--8-8--8--8--8--8-|-1---1--1--1-1--1---1--1--1--1---|
           *  *  *         *  *  *          *  *  *         *  *  *
C#|--------------------------------|----------------------------------|-----------------------------------|C#|--------------------------------|----------------------------------|
G#|--------------------------------|----------------------------------|-----------------------------------|G#|--------------------------------|----------------------------------|
E|--------------------------|------------------------------------|
B|--2---2---------2--2--------|-2---2------------------4--4--4---|
F#|-2---2--2--2--2--2---2--2--2--2-|-2---2--2--2--2--5--5--5--2--2--2-|-----------------------------------|F#|-2---2--2--2--2--2---2--2--2--2-|-2---2--2--2--2--5--5--5--2--2--2-|
B|--2---2--2--2--2-2--2--2--2--2-|-2---2--2--2--2--5--5--5-------|
           *  *  *         *  *  *          *  *  *  *  *  *  *  *  *
C#|--------------------------------|------------------------------------------------|---------------------------------------------|C#|--------------------------------|------------------------------------------------|
G#|--------------------------------|------------------------------------------------|---------------------------------------------|G#|--------------------------------|------------------------------------------------|
E|--------------------------|-------------------------------------------------------|
B|--4---4---------4--4--------|-----------------------------------------------------|
F#|-5---5--5--5--5--5---5--5--5--5-|-------------------------10---------------------|---------------------------------------------|F#|-5---5--5--5--5--5---5--5--5--5-|-------------------------10---------------------|
B|--4---4--4--4--4-4--4--4--4--4-|-12--12--12--12--10--12------12--11--10--12--10---|
           *  *  *         *  *  *    *   *   *   *   *   *   *   *   *   *   *   *

|--------------------------------------------------------------------------------------------------------|
|                                         VERSE 2 (01:27-02:11)                                          |
|--------------------------------------------------------------------------------------------------------|
                                            play INTRO + VERSE
|--------------------------------------------------------------------------------------------------------|
|                                       PRE-CHORUS 2 (02:11-02:25)                                       |
|--------------------------------------------------------------------------------------------------------|
                                            same as PRE-CHORUS
|--------------------------------------------------------------------------------------------------------|
|                                         CHORUS 2 (02:25-02:54)                                         |
|--------------------------------------------------------------------------------------------------------|
                                              same as CHORUS
|--------------------------------------------------------------------------------------------------------|
|                                          BRIDGE (02:54-03:31)                                          |
|--------------------------------------------------------------------------------------------------------|

Guitars 1 and 2 (w/ dist)

C#|------------------------------------|---------------------------------|-----------------------------------------|C#|------------------------------------|---------------------------------|
G#|------------------------------------|---------------------------------|-----------------------------------------|G#|------------------------------------|---------------------------------|
E|--------------------------------|-----------------------------------------|
B|--8--8--8--8--8--8--8--8--8--8--8---8-|-10-10-10-10-10-10-8--8--8---------|
F#|-8--8--8--8--8--8--8--8--8--8--8--8-|-10-10-10-10-10-10-8--8--8-------|-----------------------------------------|F#|-8--8--8--8--8--8--8--8--8--8--8--8-|-10-10-10-10-10-10-8--8--8-------|
B|--8--8--8--8--8--8--8--8--8--8--8---8-|-10-10-10-10-10-10-8--8--8--12s\---|

C#|------------------------------------|--------------------------------------|-------------------------------------------------------------|C#|------------------------------------|--------------------------------------|
G#|------------------------------------|--------------------------------------|-------------------------------------------------------------|G#|------------------------------------|--------------------------------------|
E|----------------------------9-----7-|-----------------------------------|
B|-----------------9-----7------------|----8-----7------------------------|
F#|-8-h10-0--7--0-----0-----0-----0----|-0-----0-----0--8--8-s10-s8--7------7-|-------------------------------------------------------------|F#|-8-h10-0--7--0-----0-----0-----0----|-0-----0-----0--8--8-s10-s8--7------7-|
B|-----------------------------------|-------------------------------10---|
          *     *     *     *     *      *     *     *       
                                                                        -----------|
C#|-------------------------------------|-------------------------------------||--------------------------------------------------|C#|-------------------------------------|-------------------------------------|    |
G#|-------------------------------------|-------------------------------------||--------------------------------------------------|G#|-------------------------------------|-------------------------------------|    |
E|---------------------------------|--------------------------------|-------------|
B|---------------------------------|--------------------------------|-------------|
F#|----------13----12-------------------|----------13----12-------------------||--------------------------------------------------|F#|----------13----12-------------------|----------13----12-------------------|    |
B|--0--0--0-----0-----0--0--0--13-0---12-|-0--0--0-----0-----0--13-0-12-0--10-|---|
    *  *  *     *     *  *  *     *       *  *  *     *     *     *     *          | x3
C#|-------------------------------------|-------------------------------------||--------------------------------------------------|C#|-------------------------------------|-------------------------------------|    |
G#|-------------------------------------|-------------------------------------||--------------------------------------------------|G#|-------------------------------------|-------------------------------------|    |
E|---------------------------------|-------------------------------|---------------|
B|---------------------------------|-------------------------------|---------------|
F#|----------13----12-------------------|----13-12-13-------------------------||--------------------------------------------------|F#|----------13----12-------------------|----13-12-13-------------------------|    |
B|--0--0--0-----0-----0--0--0--13-0---12-|-0-----------0--0--14-15-14-12-14-10-|---|
    *  *  *     *     *  *  *     *       *           *  *              -----------|

C#|------------------------------------|------------------------------------|---------------------------------------------|C#|------------------------------------|------------------------------------|
G#|------------------------------------|------------------------------------|---------------------------------------------|G#|------------------------------------|------------------------------------|
E|--------------------------------|--------------------------------------------|
B|--8--8--8--8--8--8--8--8--8--8--8---8-|-10-10-10-10-10-10-8--8--8--8--8--8---|
F#|-8--8--8--8--8--8--8--8--8--8--8--8-|-10-10-10-10-10-10-8--8--8--8--8--8-|---------------------------------------------|F#|-8--8--8--8--8--8--8--8--8--8--8--8-|-10-10-10-10-10-10-8--8--8--8--8--8-|
B|--8--8--8--8--8--8--8--8--8--8--8---8-|-10-10-10-10-10-10-8--8--8--8--8--8---|

C#|------------------------------------|--------------------------------------|-------------------------------------------------------------|C#|------------------------------------|--------------------------------------|
G#|------------------------------------|--------------------------------------|-------------------------------------------------------------|G#|------------------------------------|--------------------------------------|
E|----------------------------9-----7-|-----------------------------------|
B|-----------------9-----7------------|----8-----7------------------------|
F#|-8-h10-0--7--0-----0-----0-----0----|-0-----0-----0--8--8-s10-s8--7------7-|-------------------------------------------------------------|F#|-8-h10-0--7--0-----0-----0-----0----|-0-----0-----0--8--8-s10-s8--7------7-|
B|-----------------------------------|-------------------------------10---|
          *     *     *     *     *      *     *     *       

|--------------------------------------------------------------------------------------------------------|
|                                         CHORUS 3 (03:31-04:00)                                         |
|--------------------------------------------------------------------------------------------------------|

Guitars 1 and 2 (w/ dist)

C#|--------------------------------|----------------------------------|----------------------------------------|C#|--------------------------------|----------------------------------|
G#|--------------------------------|----------------------------------|----------------------------------------|G#|--------------------------------|----------------------------------|
E|--------------------------|-----------------------------------------|
B|--5---5---------5--5--------|-0---0---------------------------------|
F#|-5---5--5--5--5--5---5--5--5--5-|-0---0--0--0--0--3--3--3--7--7--7-|----------------------------------------|F#|-5---5--5--5--5--5---5--5--5--5-|-0---0--0--0--0--3--3--3--7--7--7-|
B|--5---5--5--5--5-5--5--5--5--5-|-0---0--0--0--0--3--3--3--7--7--7---|
           *  *  *         *  *  *          *  *  *  *  *  *  *  *  *
C#|--------------------------------|--------------------------------|-------------------------------------|C#|--------------------------------|--------------------------------|
G#|--------------------------------|--------------------------------|-------------------------------------|G#|--------------------------------|--------------------------------|
E|--------------------------|--------------------------------------|
B|--8---8---------8--8--------|-1---1---------1---1----------------|
F#|-8---8--8--8--8--8---8--8--8--8-|-1---1--1--1--1--1---1--1--1--1-|-------------------------------------|F#|-8---8--8--8--8--8---8--8--8--8-|-1---1--1--1--1--1---1--1--1--1-|
B|--8---8--8--8--8-8--8--8--8--8-|-1---1--1--1-1--1---1--1--1--1---|
           *  *  *         *  *  *          *  *  *         *  *  *
C#|--------------------------------|----------------------------------|-----------------------------------|C#|--------------------------------|----------------------------------|
G#|--------------------------------|----------------------------------|-----------------------------------|G#|--------------------------------|----------------------------------|
E|--------------------------|------------------------------------|
B|--2---2---------2--2--------|-2---2------------------4--4--4---|
F#|-2---2--2--2--2--2---2--2--2--2-|-2---2--2--2--2--5--5--5--2--2--2-|-----------------------------------|F#|-2---2--2--2--2--2---2--2--2--2-|-2---2--2--2--2--5--5--5--2--2--2-|
B|--2---2--2--2--2-2--2--2--2--2-|-2---2--2--2--2--5--5--5-------|
           *  *  *         *  *  *          *  *  *  *  *  *  *  *  *
C#|--------------------------------|------------------------------------|----------------------------------------------|C#|--------------------------------|------------------------------------|
G#|--------------------------------|------------------------------------|----------------------------------------------|G#|--------------------------------|------------------------------------|
E|--------------------------|-------------------------------------|
B|--4---4---------4--4--------|-------5-----------4-----------0---|
F#|-5---5--5--5--5--5---5--5--5--5-|-3--5-----5--5--3-----3--2--1-----1-|----------------------------------------------|F#|-5---5--5--5--5--5---5--5--5--5-|-3--5-----5--5--3-----3--2--1-----1-|
B|--4---4--4--4--4-4--4--4--4--4-|--------------------------------|
           *  *  *         *  *  *      
C#|--------------------------------|----------------------------------|----------------------------------------|C#|--------------------------------|----------------------------------|
G#|--------------------------------|----------------------------------|----------------------------------------|G#|--------------------------------|----------------------------------|
E|--------------------------|-----------------------------------------|
B|--5---5---------5--5--------|-0---0---------------------------------|
F#|-5---5--5--5--5--5---5--5--5--5-|-0---0--0--0--0--3--3--3--7--7--7-|----------------------------------------|F#|-5---5--5--5--5--5---5--5--5--5-|-0---0--0--0--0--3--3--3--7--7--7-|
B|--5---5--5--5--5-5--5--5--5--5-|-0---0--0--0--0--3--3--3--7--7--7---|
           *  *  *         *  *  *          *  *  *  *  *  *  *  *  *
C#|--------------------------------|--------------------------------|-------------------------------------|C#|--------------------------------|--------------------------------|
G#|--------------------------------|--------------------------------|-------------------------------------|G#|--------------------------------|--------------------------------|
E|--------------------------|--------------------------------------|
B|--8---8---------8--8--------|-1---1---------1---1----------------|
F#|-8---8--8--8--8--8---8--8--8--8-|-1---1--1--1--1--1---1--1--1--1-|-------------------------------------|F#|-8---8--8--8--8--8---8--8--8--8-|-1---1--1--1--1--1---1--1--1--1-|
B|--8---8--8--8--8-8--8--8--8--8-|-1---1--1--1-1--1---1--1--1--1---|
           *  *  *         *  *  *          *  *  *         *  *  *
C#|--------------------------------|----------------------------------|-----------------------------------|C#|--------------------------------|----------------------------------|
G#|--------------------------------|----------------------------------|-----------------------------------|G#|--------------------------------|----------------------------------|
E|--------------------------|------------------------------------|
B|--2---2---------2--2--------|-2---2------------------4--4--4---|
F#|-2---2--2--2--2--2---2--2--2--2-|-2---2--2--2--2--5--5--5--2--2--2-|-----------------------------------|F#|-2---2--2--2--2--2---2--2--2--2-|-2---2--2--2--2--5--5--5--2--2--2-|
B|--2---2--2--2--2-2--2--2--2--2-|-2---2--2--2--2--5--5--5-------|
           *  *  *         *  *  *          *  *  *  *  *  *  *  *  *
C#|--------------------------------|------------------------------------------------|---------------------------------------------|C#|--------------------------------|------------------------------------------------|
G#|--------------------------------|------------------------------------------------|---------------------------------------------|G#|--------------------------------|------------------------------------------------|
E|--------------------------|-------------------------------------------------------|
B|--4---4---------4--4--------|-----------------------------------------------------|
F#|-5---5--5--5--5--5---5--5--5--5-|-------------------------10---------------------|---------------------------------------------|F#|-5---5--5--5--5--5---5--5--5--5-|-------------------------10---------------------|
B|--4---4--4--4--4-4--4--4--4--4-|-12--12--12--12--10--12------12--11--10--12--10---|
           *  *  *         *  *  *    *   *   *   *   *   *   *   *   *   *   *   *

|--------------------------------------------------------------------------------------------------------|
|                                          OUTRO (04:00-04:17)                                           |
|--------------------------------------------------------------------------------------------------------|

Guitars 1 and 2 (w/ dist)

                                                                        -----------|
C#|-------------------------------------|-------------------------------------||--------------------------------------------------|C#|-------------------------------------|-------------------------------------|    |
G#|-------------------------------------|-------------------------------------||--------------------------------------------------|G#|-------------------------------------|-------------------------------------|    |
E|---------------------------------|--------------------------------|-------------|
B|---------------------------------|--------------------------------|-------------|
F#|----------13----12-------------------|----------13----12-------------------||--------------------------------------------------|F#|----------13----12-------------------|----------13----12-------------------|    |
B|--0--0--0-----0-----0--0--0--13-0---12-|-0--0--0-----0-----0--13-0-12-0--10-|---|
    *  *  *     *     *  *  *     *       *  *  *     *     *     *     *          | x3
C#|-------------------------------------|-------------------------------------||--------------------------------------------------|C#|-------------------------------------|-------------------------------------|    |
G#|-------------------------------------|-------------------------------------||--------------------------------------------------|G#|-------------------------------------|-------------------------------------|    |
E|---------------------------------|-------------------------------|---------------|
B|---------------------------------|-------------------------------|---------------|
F#|----------13----12-------------------|----13-12-13-------------------------||--------------------------------------------------|F#|----------13----12-------------------|----13-12-13-------------------------|    |
B|--0--0--0-----0-----0--0--0--13-0---12-|-0-----------0--0--14-15-14-12-14-10-|---|
Colaboração e revisão:
  • Gustavo Straub
748 exibições
    • ½ Tom
    • A
    • Bb
    • B
    • C
    • Db
    • D
    • Eb
    • E
    • F
    • F#
    • G
    • Ab
  • Adicionar à lista

    0 comentários

    Mostrar mais comentários

    Conseguiu tocar?

    0 Tocaram 0 Ainda não

    Grave um vídeo tocando Immortalized e mande pra gente!

    00:00 / 00:00
    outros vídeos desta música
    repetir qualidade Automático
    Outros vídeos desta música
    00:00 / 00:00
    Automático

    Cifra Club Pro

    Aproveite o Cifra Club com benefícios exclusivos e sem anúncios
    7 dias grátis
    Cifra Club Pro
    Aproveite o Cifra Club com benefícios exclusivos e sem anúncios
    7 dias grátis
    OK