Cifra Club

Aprenda

Indestructible

Disturbed

Cifra: Principal (violão e guitarra)
Tom: C
This is Indestructible by Disturbed
The part i'm not 100% on is the end of the solo
Its kinda hard to pick out all the notes
But i'm very confident with everything else
Enjoy!

Tuning: Drop C (C G C F A D)

Intro:
D |------------------------------------------------------------|
A |------------------------------------------------------------|
F |------------------------------------------------------------|
C |--5/7-----7---10-----7-----8-------5/7---10---7---8---888---|
G |--3/5-----5---8------5-----6-------3/5---8----5---6---666---|
C |------0-0---0----0-0---0-0---0-0-0-----0---0----0---0-------|
PM      . .   .    . .   . .   . . .     .   .    .   .

D |------------------------------------------------------------|
A |------------------------------------------------------------|
F |------------------------------------------------------------|
C |--5/7-----7---10-----7-----8-------5/7---10---7-------------|
G |--3/5-----5---8------5-----6-------3/5---8----5--0-0-0-3-0--|
C |------0-0---0----0-0---0-0---0-0-0-----0---0----------------|
PM      . .   .    . .   . .   . . .     .   .

Verse:
D |---------------------------------------------------|
A |---------------------------------------------------|
F |------5-----------------------5--------------------|
C |--5h7-----3h5h7---3h5p0----5h7-3h5h7---3h5--5--3---|
G |---------------------------------------------------|
C |---------------------------------------------------|

Verse End:
D |------------------------|
A |------------------------|
F |------------------------|
C |--5-5-5-5----8-8-8-8----|
G |--5-5-5-5----8-8-8-8----|
C |--5-5-5-5----8-8-8-8----|

Chorus:
D |------------------------------------------------------|
A |------------------------------------------------------|
F |------------------------------------------------------|
C |--0~------5---5/7-------7---7-7-----8---8/7----1-1-1--|
G |--0~------3---3/5-------5---5-5-----6---6/5----1-1-1--|
C |--0~--0-0---0-------0-0---0-----0-0---0--------1-1-1--|
PM      . .   .       . .   .     . .   .

Chorus Ending:
D |----------------------------------------|
A |----------------------------------------|
F |----------------------------------------|
C |--8-8-8-8-8---7-7-7-7-8-7-8---7-8-7-----|
G |--8-8-8-8-8---7-7-7-7-8-7-8---7-8-7-----|
C |--8-8-8-8-8---7-7-7-7-8-7-8---7-8-7-----|

Bridge to Solo: (funky wah and phaser sound?)
D |------------------------------------------------------------|
A |------------------------------------------------------------|
F |--5/7-----7---10-----7-----8-------5/7--10----7---8---888---|
C |------0-0---0----0-0---0-0---0-0-0-----0---0----0---0-------|
G |------------------------------------------------------------|
C |------------------------------------------------------------|
PM      . .   .    . .   . .   . . .     .   .    .   .

D |------------------------------------------------------------|
A |------------------------------------------------------------|
F |--5/7-----7---10-----7-----8-------5/7---10---7-------------|
C |------0-0---0----0-0---0-0---0-0-0-----0----0---------------|
G |-------------------------------------------------0-0-0-3-0--|
C |------------------------------------------------------------|
PM      . .   .    . .   . .   . . .     .    .

Repeat Intro

Solo: The t22r means hold down the 22nd fret with one of your fingers
      on the picking hand, then release.  Do that while you are still
      bending the C string at the 10th fret.  Once you release the
      22nd fret, slowly let go of the bend on the 10th fret.

D |---------------------------------------------------------------|
A |---------------------------------------------------------------|
F |---------------------------------------------------------------|
C |--7----7----7----7------8----8----8----8----8-------7---3------|
G |--7----7----7----7------8----8----8----8----8-------7---3------|
C |--7----7----7----7------8----8----8----8----8-------7---3------|

D |------------------------------|--------------------|-----------|
A |------------------------------|--------------------|-----------|
F |------------------------------|--------------------|-----------|
C |--10br--10b--t22r-10r---------|--14p10p7--14p10p7--|----7~-----|
G |------------------------*8----|--------------------|-----------|
C |------------------------------|--------------------|-----------|
PH                         .


D |---------------------------------------------------------------|
A |---------------------------------------------------------------|
F |---------------------------------------------------------------|
C |--7----7----7----7------8----8----8----8----8-------3---7------|
G |--7----7----7----7------8----8----8----8----8-------3---7------|
C |--7----7----7----7------8----8----8----8----8-------3---7------|

D |----------------------------------------------------------------|
A |----------------------------------------------------------------|
F |--------------------------------------9br-----------------------|
C |---------7-8-7------7-8-10-8-7-----------10--7-7-10-7---5-5-7-0-|
G |--7-8-10-------8-10------------10-8-----------------------------|
C |----------------------------------------------------------------|
PM  . . .  . . . . .  . . .


D |---------------------------------------------------------------|
A |---------------------------------------------------------------|
F |---------------------------------------------------------------|
C |--7----7----7----7------8----8----8----8----8-------7---3------|
G |--7----7----7----7------8----8----8----8----8-------7---3------|
C |--7----7----7----7------8----8----8----8----8-------7---3------|

D |---------------------------------------------------------------|
A |------------------------------------8-10-----------------------|
F |--9-10-9-12-12-9-10-12-9-10-9----------------------------------|
C |---------------------------------------------------------------|
G |---------------------------------------------------------------|
C |---------------------------------------------------------------|


D |----------------------------------------------------------|
A |----------------------------------------------------------|
F |----------------------------------------------------------|
C |--3----3----3----3------2----2----2----2----2-------------|
G |--3----3----3----3------2----2----2----2----2-------------|
C |--3----3----3----3------2----2----2----2----2-------------|
        Bend the 13th fret to make it sound like 15th (13b15)
D |---------------------------------------------------------------|
A |--13b15-13b----------------------------------------------------|
F |-------------0h10h12p10-12b-------10-12-10~--------------------|
C |----------------------------10h12------------------------------|
G |---------------------------------------------------------------|
C |---------------------------------------------------------------|


Solo Ending: Im not really sure about this part.
D |-------------|
A |-------------|
F |-------------|
C |--10-10-10---|
G |--10-10-10---|
C |--10-10-10---|

D |--10h12h13p12p10-12h13h15p13p12-10h12h15h12h10-12h13p12------------|
A |--------------------------------------------------------13---------|
F |-----------------------------------------------------------12-10~--|
C |-------------------------------------------------------------------|
G |-------------------------------------------------------------------|
C |-------------------------------------------------------------------|

Repeat Chorus Once, then do the Heavy Chorus below

Heavy Chorus: Go with the drum beat for the very first part
D |-------------------------------------|
A |-------------------------------------|
F |-------------------------------------|
C |--0000--0--00--0--00--0-00--1-1-1----|
G |--0000--0--00--0--00--0-00--1-1-1----|
C |--0000--0--00--0--00--0-00--1-1-1----|

D |----------------------------------------------------|
A |----------------------------------------------------|
F |----------------------------------------------------|
C |--0~------0---0-0-----0---0-0-----0-1-0------1-1-1--|
G |--0~------0---0-0-----0---0-0-----0-1-0------1-1-1--|
C |--0~--0-0-0-0-0-0-0-0-0-0-0-0-0-0-0-1-0------1-1-1--|
PM      . .   .     . .   .     . .


Ending:
D |------------------------------------------------------------|
A |------------------------------------------------------------|
F |------------------------------------------------------------|
C |--5/7-----7---10-----7-----8-------5/7---10---7---8---888---|
G |--3/5-----5---8------5-----6-------3/5---8----5---6---666---|
C |------0-0---0----0-0---0-0---0-0-0-----0---0----0---0-------|
PM      . .   .    . .   . .   . . .     .   .    .   .


D |-------------------------------------------------------------|
A |-------------------------------------------------------------|
F |-------------------------------------------------------------|
C |--5/7-----7----------7-----8---------5/7---10--7-------------|
G |--3/5-----5----------5-----6---------3/5---8---5--0-0-0-3-0--|
C |------0-0---0-0-0-0----0-0----0-0-0------0---0---------------|
PM      . .   . . . .    . .    . . .      .   .

D |------|
A |------|
F |------|
C |--0~--|
G |--0~--|
C |--0~--|
Composição de Disturbed
Colaboração e revisão:
  • Arturo Nunes
15.283 exibições
    • ½ Tom
    • A
    • Bb
    • B
    • C
    • Db
    • D
    • Eb
    • E
    • F
    • F#
    • G
    • Ab
  • Adicionar à lista

    0 comentários

    Mostrar mais comentários

    Conseguiu tocar?

    4 Tocaram 1 Ainda não

    Grave um vídeo tocando Indestructible e mande pra gente!

    00:00 / 00:00
    outros vídeos desta música
    repetir qualidade Automático
    Outros vídeos desta música
    00:00 / 00:00
    Automático
    OK