Cifra Club

Aprenda

The Night

Disturbed

Cifra: Principal (violão e guitarra)
Tom: C
Drop C

|--------------------------------------------------------------|
|----------------------------------------------------13--------|
|-------------------------------------------------12-----------|
|---0----------0----------0--------------12-14-15--------------|
|---0----6-5---0--13-12---0--6-5---13-12-----------------------|
|---0----------0----------0------------------------------------|

|--------------------------------------------------------|
|--------------------------------------------------------|
|--------------------------------------------------------|
|---1--0-0-0-0-1--0-0-0-0-1--0-0-1--0-0-0-0-1--0-0-0-0-1-|
|---1--0-0-0-0-1--0-0-0-0-1--0-0-1--0-0-0-0-1--0-0-0-0-1-|
|---1--0-0-0-0-1--0-0-0-0-1--0-0-1--0-0-0-0-1--0-0-0-0-1-|
       * * * *    * * * *    * *    * * * *    * * * *

|--------------------------------------------------------------|
|--------------------------------------------------------------|
|-------------------------------------------------12-----------|
|---0----------0----------0--------------12-14-15-----14-------|
|---0----6-5---0--13-12---0--6-5---13-12-----------------------|
|---0----------0----------0------------------------------------|

|--------------------------------------------------------|
|--------------------------------------------------------|
|--------------------------------------------------------|
|---1--0-0-0-0-1--0-0-0-0-1--0-0-1--0-0-0-0-1--0-0-0-0-1-|
|---1--0-0-0-0-1--0-0-0-0-1--0-0-1--0-0-0-0-1--0-0-0-0-1-|
|---1--0-0-0-0-1--0-0-0-0-1--0-0-1--0-0-0-0-1--0-0-0-0-1-|
       * * * *    * * * *    * *    * * * *    * * * *
The verse and intro are the same, then I think you just hold open strings until the 
where you play different patterns of

|---|         |---|
|---|         |---|
|---|         |---|
|-6-|   and   |-5-|
|-6-|         |-5-|
|-6-|         |-5-|

thats as far as i can get
Composição de Disturbed
Colaboração e revisão:
  • Bruno Andrade
8.805 exibições
    • ½ Tom
    • A
    • Bb
    • B
    • C
    • Db
    • D
    • Eb
    • E
    • F
    • F#
    • G
    • Ab
  • Adicionar à lista

    0 comentários

    Mostrar mais comentários

    Conseguiu tocar?

    0 Tocaram 1 Ainda não

    Grave um vídeo tocando The Night e mande pra gente!

    00:00 / 00:00
    outros vídeos desta música
    repetir qualidade Automático
    Outros vídeos desta música
    00:00 / 00:00
    Automático
    OK