Cifra Club

Aprenda

Sisters

Divididos

Cifra: Principal (violão e guitarra)
Tom: G
Guitarra 1 (inicio)
E|--5--x--5--x--5--x--5--x--5--x--5--x--5--x--5--||
B|--6--x--6--x--6--x--6--x--6--x--6--x--6--x--6--||
G|--7--x--7--x--7--x--7--x--7--x--7--x--7--x--7--||
D|--7--x--7--x--7--x--7--x--7--x--7--x--7--x--7--||
A|--5--x--5--x--5--x--5--x--5--x--5--x--5--x--5--||
E|-----------------------------------------------||

Guitarra 1
E|--3--x--3--x--3--x--3--x--3--x--3--x--3--x--3--|
B|--5--x--5--x--5--x--5--x--5--x--5--x--5--x--5--|
G|--5--x--5--x--5--x--5--x--5--x--5--x--5--x--5--|
D|--5--x--5--x--5--x--5--x--5--x--5--x--5--x--5--|
A|--3--x--3--x--3--x--3--x--3--x--3--x--3--x--3--|
E|-----------------------------------------------|

Guitarra 1
E|--1--x--1--x--1--x--1--x--1--x--1--x--1--x--1--|
B|--3--x--3--x--3--x--3--x--3--x--3--x--3--x--3--|
G|--3--x--3--x--3--x--3--x--3--x--3--x--3--x--3--|
D|--3--x--3--x--3--x--3--x--3--x--3--x--3--x--3--|
A|--1--x--1--x--1--x--1--x--1--x--1--x--1--x--1--|
E|-----------------------------------------------|

Guitarra 1
E|--1--x--1--x--1--x--1--x--1--x--1--x--1--x--1--|
B|--1--x--1--x--1--x--1--x--1--x--1--x--1--x--1--|
G|--2--x--2--x--2--x--2--x--2--x--2--x--2--x--2--|
D|--3--x--3--x--3--x--3--x--3--x--3--x--3--x--3--|
A|--3--x--3--x--3--x--3--x--3--x--3--x--3--x--3--|
E|--1--x--1--x--1--x--1--x--1--x--1--x--1--x--1--|

Guitarra 1
E|--5--x--5--x--5--x--5--x--5--x--5--x--5--x--5--||
B|--6--x--6--x--6--x--6--x--6--x--6--x--6--x--6--||
G|--7--x--7--x--7--x--7--x--7--x--7--x--7--x--7--||
D|--7--x--7--x--7--x--7--x--7--x--7--x--7--x--7--||
A|--5--x--5--x--5--x--5--x--5--x--5--x--5--x--5--||
E|-----------------------------------------------||

Guitarra 1
E|-------------------------|------------------------|-------------------|
B|-------------------------|----------8s10--10--10--|-----10s8--8--5s6--|
G|-------5--5h7--5---5--7--|--8s10--8---------------|-------------------|
D|--5--7-----------7-------|----------8s10--10--10--|--10---------------|
A|-------------------------|------------------------|-------------------|
E|-------------------------|------------------------|-------------------|

Guitarra 1
E|-----------------------|--------8--8--6--8---------|-----------------||
B|----6--5h6--5s6--6--5--|------6--------------8s10--|--10s8---8--5h6--||
G|-----------------------|----7----------------------|-----------------||
D|-----------------------|--8----------------8-------|-------8---------||
A|--8--------------------|---------------------------|-----------------||
E|-----------------------|---------------------------|-----------------||

Estrofa 1

Guitarra 1
E|-------------------------------------|---------|
B|--13p10----10------------------------|---------|
G|--------12----10---------------------|---------|
D|-----------------12--10-------10h12--|--10h12--|
A|------------------------10-----------|---------|
E|---------------------------13--------|---------|
  Through the course of an...           Our sisters felt a...

Guitarra 1
E|-----------------10p8-----------|-------------|
B|--13p10----13b15------8--10-----|-------------|
G|--------12------------------10--|--10-----10--|
D|--------------------------------|--10h12--10--|
A|--------------------------------|-------------|
E|--------------------------------|-------------|
  Their fear was raised by the...  Their quiet rage sleeps...

Estribillo

Guitarra 1
E|-----------------------|
B|--13p10----------------|
G|--------12--10---------|
D|---------------12--10--|
A|-----------------------|
E|-----------------------|
  We have a reason...

Guitarra 1
E|--------------------------------------|-------------------|
B|----------------10--13----------------|-------------------|
G|--10--12--12b14--------12h14--12--10--|--10-----10----10--|
D|--------------------------------------|--10h12--10----10--|
A|--------------------------------------|------------12-----|
E|--------------------------------------|-------------------|
  ...to ban our heart                   We have a reason to...

Estrofa 2

Guitarra 1
E|-----------------10--12p10---------------|-----------------------------------|
B|--13p10----13b15-----------13p10---------|-----------------------------------|
G|--------12-----------------------12--10--|--12b14--12--10-----------------7--|
D|-----------------------------------------|----------------12--10-------------|
A|-----------------------------------------|-----------------------12s10--8----|
E|-----------------------------------------|-----------------------------------|
  Through the course of an...               Our sisters felt a...

Guitarra 1
E|-------------|
B|-------------|
G|--10-----10--|
D|--10h12--10--|
A|-------------|
E|-------------|
  ...them tonight

Estribillo

Guitarra 1
E|---------------------|---------------------------------------|
B|--13p10----10--------|---------------------------------9h10--|
G|--------12----10-----|--12b14--14--14r12--10--12----10-------|
D|-----------------12--|---------------------------12----------|
A|---------------------|---------------------------------------|
E|---------------------|---------------------------------------|
  We have a reason...   ...to ban our heart

Guitarra 1
E|-------------------|--------10--------------------|
B|--13p10------------|--13b15----8h10--8------------|
G|--------12--10-----|-------------------10--7--10--|
D|---------------12--|------------------------------|
A|-------------------|------------------------------|
E|-------------------|------------------------------|
  ...your mind         Sister midnight...

Guitarra 1
E|--13p12--10----10------------------------------------------------|
B|------------13----13---------------------------------------------|
G|---------------------10--12--10--12--10--------------------------|
D|----------------------------------------12--10--12--12-------10--|
A|-------------------------------------------------------11h12-----|
E|-----------------------------------------------------------------|
  ...sister moon

Guitarra 1
E|---------------------------|
B|---------------------------|
G|-----------10--10--10--10--|
D|--------12-----12--12--10--|
A|--12s13--------------------|
E|---------------------------|
  Like me so much don't think I'll...

Solo 1

Guitarra 1
E|-----13--10~--|--12--13--15--15b17--15b17--|
B|--10----------|----------------------------|
G|--------------|----------------------------|
D|--------------|----------------------------|
A|--------------|----------------------------|
E|--------------|----------------------------|

Guitarra 1
E|--17s15--15--------15--16--17--16--15----15-------------------------|
B|------------15--18--------------------18----15--18--15----13--------|
G|-------------------------------------------------------14----14s12--|
D|--------------------------------------------------------------------|
A|--------------------------------------------------------------------|
E|--------------------------------------------------------------------|

Guitarra 1
E|-----------------------------------------------------------------------------|
B|-------------------10--13----------------------------------------------------|
G|--10--12--10----10--------12--10--12--10--------10---------------------------|
D|-------------12--------------------------12--10----12--10-------10-----------|
A|----------------------------------------------------------10h12-------10-----|
E|-------------------------------------------------------------------13----13--|

Guitarra 1
E|-------------------------------------------------------|
B|-------------------------------------------------------|
G|-------------------------------------------------------|
D|-------------------------------------------------------|
A|--10h12--10----10h12--10----10h12--10----10h12--10-----|
E|------------13-----------13-----------13-----------13--|

Guitarra 1
E|------------------------------------------|--------------------------------------|
B|------------------------------------------|--------------------------------------|
G|------------------------------------------|--------------------------------------|
D|------------------------------------------|--------------------------------------|
A|--10h12--10----10h12--10----10h12--10-----|--10------------10--------------------|
E|------------13-----------13-----------13--|-----13--10--13----13--13s12--10--12--|

Guitarra 1
E|--------------------------------------|
B|--------------------------------------|
G|--------------------------------------|
D|--------------------------------------|
A|--10------------10--------------------|
E|-----13--10--13----13--13s12--10--12--|

Guitarra 1
E|---------10--13--13--13p10----12b14r12p10----10--10--|
B|--10--13-------------------10-------------10---------|
G|-----------------------------------------------------|
D|-----------------------------------------------------|
A|-----------------------------------------------------|
E|-----------------------------------------------------|

Guitarra 1
E|---------12b14r12p10----13--15--17--17b19--17--15--|
B|--10--13-------------10----------------------------|
G|---------------------------------------------------|
D|---------------------------------------------------|
A|---------------------------------------------------|
E|---------------------------------------------------|

E|--15--17----15------------------------||
B|---------18----17--13--15--13--13h15--||
G|--------------------------------------||
D|--------------------------------------||
A|--------------------------------------||
E|--------------------------------------||

Estribillo

Guitarra 1
E|--------11--------------------|--------13---------------|
B|--13b15----13s10--8h10--8-----|--15b17----15------------|
G|--------------------------10--|--------------14--12s10--|
D|------------------------------|-------------------------|
A|------------------------------|-------------------------|
E|------------------------------|-------------------------|
  Sister midnight...            ...sister moon

Solo 2

Guitarra 1
E|--------10--12--10--------------------------|-----------------|
B|--13b15------------13--10-------------------|-----------------|
G|--------------------------12h14--12--10-----|--12h14--10--12--|
D|----------------------------------------12--|-----------------|
A|--------------------------------------------|-----------------|
E|--------------------------------------------|-----------------|

Guitarra 1
E|-------------------------|--------------------------------|
B|--------15--13-----------|--------------------------------|
G|--12h14--------12h14-----|--------------------------------|
D|---------------------15--|--12--12--10----------------10--|
A|-------------------------|-------------8s10----10--12-----|
E|-------------------------|------------------13------------|

Guitarra 1
E|-----------------------------------------------13--12h13p12----13b15--|
B|--13p10----10---------------------------13--15--------------15--------|
G|--------12----10------------10----12s14-------------------------------|
D|-----------------12--10--12----12-------------------------------------|
A|----------------------------------------------------------------------|
E|----------------------------------------------------------------------|

Guitarra 1
E|--13s10--10--8-----------|--12p10----10----------------------|
B|---------------10--8h10--|--------13----13--10----10---------|
G|-------------------------|---------------------12----12--10--|
D|-------------------------|-----------------------------------|
A|-------------------------|-----------------------------------|
E|-------------------------|-----------------------------------|

Guitarra 1
E|------------------------------------------------------------------|
B|------------------------------------------------------------------|
G|---------------------------------------------10----10--12--12h14--|
D|--12p10-----------7s10--10----10--12--10--12----12----------------|
A|--------10s8----8----------12-------------------------------------|
E|-------------10---------------------------------------------------|

Guitarra 1
E|-----10--13--15--17--15b17--17s15--13--|
B|--13-----------------------------------|
G|---------------------------------------|
D|---------------------------------------|
A|---------------------------------------|
E|---------------------------------------|

Guitarra 1
E|--10--10s8--8--------------|
B|--------------10--8--------|
G|--------------------10-----|
D|-----------------------12--|
A|---------------------------|
E|---------------------------|

Guitarra 1
E|------------------------------------------------|
B|------------------------------------------------|
G|-----------------------------------10----10-----|
D|--12s10---------------------10h12--10----10-----|
A|--------12--10----10s12--15-----------12--------|
E|---------------13---------------------------13--|

Gutitarra 1
E|------------------------------------------------|
B|------------------------------------------------|
G|--12b14--12--10----10--12--12b14--14r12--10--9--|
D|----------------12------------------------------|
A|------------------------------------------------|
E|------------------------------------------------|

Guitarra 1
E|-------------------------------|
B|--------------------10---------|
G|--14r12p10----12b14----12--10--|
D|-----------12------------------|
A|-------------------------------|
E|-------------------------------|

Guitarra 1
E|----------------------|--12b13--12--10-----------------------|
B|--13--14--15--15--15--|----------------13--10----------------|
G|----------------------|-----------------------12h14--12--10--|
D|----------------------|--------------------------------------|
A|----------------------|--------------------------------------|
E|----------------------|--------------------------------------|

Guitarra 1
E|----------------------------------------|
B|----------------------------------------|
G|--10-----10-------------------10--------|
D|--10h12--10-----------10--12--10h12p10--|
A|------------10--8--12-------------------|
E|----------------------------------------|

Guitarra 1
E|-------------------------------------------------------|
B|--13p10----10------------------------------------------|
G|--------12----10----12--10-----------------------------|
D|-----------------12--------12--10----------------------|
A|----------------------------------12--10----10s12--12--|
E|-----------------------------------------13------------|

Guitarra 1
E|--------------------|--------------------------------|
B|--------------------|--------------------------------|
G|--------------------|--12h14p12----10--12------------|
D|---------10--10h12--|-----------12--------10h12--10--|
A|--10--12------------|--------------------------------|
E|--------------------|--------------------------------|

Guitarra 1
E|--------13----------------------------------|
B|--13s15-------------------------------------|
G|-----------14--14s12--12--10----------------|
D|-----------------------------10--10h12--10--|
A|--------------------------------------------|
E|--------------------------------------------|

Guitarra 1
E|--------------------------------------------------||
B|--------------------------------------------------||
G|----------------10-----10-------------------------||
D|------------10--10h12--10-------------------------||
A|--12--10h12---------------10----------------------||
E|-----------------------------13p10h13--10s13--13--||     Fin
Falta la segunda guitarra pero igual suena bien, Cualquier cosa pueden escribirme a rockamorir@hotmail.com.
Colaboração e revisão:
  • Alan Peñiñorey
2.995 exibições
    • ½ Tom
    • A
    • Bb
    • B
    • C
    • Db
    • D
    • Eb
    • E
    • F
    • F#
    • G
    • Ab
  • Adicionar à lista

    0 comentários

    Mostrar mais comentários
    00:00 / 00:00
    outros vídeos desta música
    repetir qualidade Automático
    Outros vídeos desta música
    00:00 / 00:00
    Automático

    Cifra Club Pro

    Aproveite o Cifra Club com benefícios exclusivos e sem anúncios
    7 dias grátis
    Cifra Club Pro
    Aproveite o Cifra Club com benefícios exclusivos e sem anúncios
    7 dias grátis
    OK