Cifra Club

Aprenda

Mississippi

Dixie Chicks

Tab de baixo: Principal
Já pensou em usar uma coleção de roupas do Cifra Club? Responda as perguntas abaixo e nos ajude nessa missão! →
Bass Tab by Mike Bond
*
m = mute
/ = slide
Intro
---------------------------------------------------0-------------------|
--------------------------------------------0-2/4-----4\2-0------------|
--0------m---------------------0-----m---------------------------------|
--------------0--3--0--3--0--------------------------------------------|
} 2x


Verse
----------------------------------------------------------------------|
-----------------------------------------------0----------------------|
--0------m---------------------0-----m--0-----------------------------|
--------------0--3--0--3--0----------------------0--3--0--------------|


----------------------------------------------------------------------|
-----------------------------------------------0----------------------|
--0------m---------------------0-----m--0-----------------------------|
--------------0--3--0--3--0--------------------------0--3-------------|


----------------------------------------------------------------------|
-----------------0--m--0--2------------------0------------------------|
--0-------m-0-----------------0------m--0-----------------------------|
----------------------------------------------------0--3--4-----------|

----------------------------------------------------------------------|
-----------------0--m--0--2-------------------------------------------|
--0-------m-0--------------------------------0------------------------|
--------------------------------0------0--------------12\0------------|

Intro
Verse


Bridge
----------------------------------------------------------------------|
----------------------------------------------------------------------|
-----------------------------------------------0------0---1-----------|
---0-----0------2------2------4-------4----------4--------------------|

----------------------------------------------------------------------|
---------------------------------0--0--0------2--0--------------------|
--2------2------4------4-----------------------------0--2-------------|
----------------------------------------------------------------------|
} 2x

Refrain (same as verse)

Intro 4x

Verse
Bridge
Refrain (same as verse)

Solo (same as verse)

A cappella half Verse (no bass)
Second half with bass (line 3 and 4 verse)

Bridge

Refrain

“ Only thing that I did wrong…”  (With bass)
Slide on 1 (A string 12\5 slow)

A cappella: “ Only thing ….”  (no bass)

End (Intro 4x)
Than:
--2--2--2----------------------2--2--2--------------------------------|
----------------0-4/5-4-2--------------------0-4/5-4-2----------------|
-----------------------------3-------------------------------3--------|
----------------------------------------------------------------------|
} 8x (16 measures)

-------------------|
-------------------|
-------------------|
--0--2--4--5---5 ~-|
Composição de Túlio Mourão
439 exibições

0 comentários

Ver todos os comentários

Conseguiu tocar?

0 Tocaram 0 Ainda não

Grave um vídeo tocando Mississippi e nos envie!

00:00 / 00:00
Outros vídeos desta música
Repetir Qualidade Automático
Outros vídeos desta música
00:00 / 00:00
Automático

Cifra Club Pro

Aproveite o Cifra Club com benefícios exclusivos e sem anúncios
Cifra Club Pro
Aproveite o Cifra Club com benefícios exclusivos e sem anúncios
OK