Cifra Club

Oceano

Djavan

Cifra: Principal (violão e guitarra)
exibições 1.787.307
Tom: Dm
[Primeira Parte]
 
   D       G7M     A7      A#°
E|---2-------2----------------------------------------|
B|---3-------3-------5-------5------------------------|
G|---2-------4-------6-------6------------------------|
D|-0---0-------------5-------5------------------------|
A|----------------------------------------------------|
E|---------3---3---5---5---6---6----------------------|

   Bm      Bm7M    Bm7     Bm6 
E|---------------------------2------------------------|
B|---3-------3-------3-------1------------------------|
G|---4-------3-------2-------3------------------------|
D|---4-------4-------4--------------------------------|
A|-2---2---2---2---2---2---2---2----------------------|
E|----------------------------------------------------|

   Am7     D7(9)   Gm7     C7(9)
E|----------------------------------------------------|
B|---5-------5-------3-------3------------------------|
G|---5-------5-------3-------3------------------------|
D|---5-------4-------3-------2------------------------|
A|---------5---5-----------3---3----------------------|
E|-5---5-----------3---3------------------------------|

   F#m7    B7(9-)  E7(9)   A7(4) 
E|---------------------------3------------------------|
B|---2-------1-------7-------3------------------------|
G|---2-------2-------7-------4------------------------|
D|---2-------1-------6--------------------------------|
A|---------2---2-----------0---0----------------------|
E|-2---2-----------0---0------------------------------|

D       G7M                 A7
  Assim    que o dia amanheceu
       A#°         Bm    Bm7M
Lá no mar alto da paixão
Bm7         Bm6          Am7   D7(9)
  Dava pra ver  o tempo ruir
Gm7       C7(9)       F#m7
  Cadê você, que solidão
B7(9-)        E7(9)       A7(4)
      Esquecerá    de mim

D       G7M                   A7
  Enfim,   de tudo que há na terra
        A#°               Bm   Bm7M
Não há nada em  lugar nenhum
Bm7              Bm6           Am7  D7(9)
   Que vá crescer  sem você  chegar
Gm7          C7(9)       F#m7
   Longe de ti   tudo parou
B7(9-)         E7(9)            A7(4)
      Ninguém sabe o que eu sofri

[Refrão]

   Dm7     C7(4/9) F7M       Em7(5-)  A7(13-)
E|-----------3------------|---------------------------|
B|---6-------3-------1----|----8--------6-------------|
G|---5-------3-------2----|----7--------6-------------|
D|---7---------------2----|----8--------5-------------|
A|-5---5---3---3----------|---------------------------|
E|-----------------1---1--|--0--------5---------------|

   Dm7     C7(4/9) F7M     Gm7     Am7
E|-----------3----------------------------------------|
B|---6-------3-------1-------3-------5----------------|
G|---5-------3-------2-------3-------5----------------|
D|---7---------------2-------3-------5----------------|
A|-5---5---3---3--------------------------------------|
E|-----------------1---1---3---3---5---5--------------|

   Bb7M    Em7(9)  A7(13-)
E|----------------------------------------------------|
B|---6-------7-------6--------------------------------|
G|---7-------7-------6--------------------------------|
D|---7-------5-------5--------------------------------|
A|----------------------------------------------------|
E|-6---6---0---0---5---5------------------------------|

Dm7          C7(4/9)          F7M   
Amar é um deserto e  seus  temores

( Em7(5-) A7(13-) )

 Dm7              C7(4/9)     F7M
Vida que vai  na sela dessas dores
     Gm7     Am7     Bb7M       Em7(9)  A7(13-)
Não sabe voltar, me dá   teu calor

 Dm7              C7(4/9)           F7M   
Vem me fazer feliz       porque eu te amo

( Em7(5-) A7(13-) )

 Dm7             C7(9)        F7M
Você deságua em mim   e eu oceano
       Gm7       Am7      Bb7M     Em7(5-)  A7(13-)
Me esqueço que amar  é  quase uma dor

 D    F7M    G7M  C    D   F7M  G7M   C   D
Só   sei    vi___ver  se  for  por   vo__cê

( F7M  G7M  C  D )
Acordes para:

    0 comentários

    mostrar mais comentários

    Conseguiu tocar?

    186 tocaram 18 ainda não

    Grave um vídeo tocando Oceano e mande pra gente!

    00:00 / 00:00
    outros vídeos desta música
    repetir qualidade Automático
    Outro vídeos desta música
    00:00 / 00:00
    Automático
    Capítulos
    • Início
    • Acordes da música
    • Tocando um trecho
    • Ensinando o ritmo
    • Acordes do refrão
    • Tocando o refrão
    • Ensinando o ritmo do refrão
    • Encerramento
    OK