Cifra Club

Onde Ninguém Vê

DK6

Cifra: Principal (violão e guitarra)
tom: Ab
Intro (vai até o primeiro refrão)

E|11--7--7--7--------|   E|11----|                     E|11-------|
B|9---9--9--9--------|   B|9-----|  Pode tocar também  B|12-------|
G|8---8--9--8--------|   G|8-----|                     G|13-------|
D|-------------------|
A|-------------------|
E|-------------------|

Riff Refrão (escutar pra pegar o tempo)

E|------------------------------|
B|------------------------------|
G|8--10--12-13--6--3-----13--11-|
D|x--x---x--x---x--x--6--x---x--|
A|6--8---10-11--4--1--x--11--10-|
E|--------------------4---------|

Esqueceu de quem te encontrou onde ninguem vê
Sem perdão, é o que você escuta sem perceber

Que tudo tenta te tirar dos braços de quem quer te ver sorrir
E nunca te esqueceu

Agora você não escuta quem sempre te chama e quer dar seu perdão

Eb9     Fm            Db9
Encontrar quem sempre te deu a mão
      Ab
E pediu seu coração
Eb9     Fm     Db9
Entender, que a vida não é mais
          Ab
O que você deixou pra trás

Intro (até refrão de novo)

Riff
E|------------------------------------------------|
B|------------------------------------------------|
G|11-------------11------------11-----------------|
D|---11--9-----------11--9---------11--9----------|
A|----------7---------------8-------------7-----6-|
E|------------------------------------------------|

Esqueceu de quem te encontrou onde ninguem vê
Sem perdão, é o que você escuta sem perceber

Que tudo tenta te tirar dos braços de quem quer te ver sorrir
E nunca te esqueceu

Agora você não escuta quem sempre te chama e quer dar seu perdão

B|9----9----9----|
G|-8-8--8-8--8-8-|

Eb9     Fm            Db9
Encontrar quem sempre te deu a mão
      Ab
E pediu seu coração
Eb9     Fm     Db9
Entender, que a vida não é mais
          Ab
O que você deixou pra trás

E|11--9--7-----11--9-----11--9--7--9--7------|
B|----------9---------9------------------9---|

E|----------------------------------------------------------------------------------------|
B|----------------------------------------------------------------------------------------|
G|-------------8--8-----------------8--8------------------8---8------------------8--8-----|
D|---66--88-99---9--9-----66--88-99---9--9-----66--88--99---9---9-----66--88--99---9--9---| x2
A|---------------------77-------------------88---------------------77---------------------|
E|44--------------------------------------------------------------------------------------|

Riff Final (Tocado Rápido)
B|12--14--16--12------|
G|13--13--13--13--9---|

Ps: Tirando o resto atualizo aqui !
Composição de Abel Junho / Thim Castro
Colaboração e revisão:
  • Zenky
2.703 exibições
    • ½ Tom
    • A
    • Bb
    • B
    • C
    • Db
    • D
    • Eb
    • E
    • F
    • F#
    • G
    • Ab
  • Adicionar à lista

    0 comentários

    Ver todos os comentários

    Conseguiu tocar?

    0 Tocaram 0 Ainda não

    Grave um vídeo tocando Onde Ninguém Vê e nos envie!

    00:00 / 00:00
    Outros vídeos desta música
    Repetir Qualidade Automático
    Outros vídeos desta música
    00:00 / 00:00
    Automático

    Cifra Club Pro

    Aproveite o Cifra Club com benefícios exclusivos e sem anúncios
    Cifra Club Pro
    Aproveite o Cifra Club com benefícios exclusivos e sem anúncios
    OK