Cifra Club

Aprenda

Um Dia Qualquer

Dmits

Cifra: Principal (violão e guitarra)
tom: E
C#m            G#m
   Um dia qualquer
 C#m            G#m
   Eu irei te ter denovo
   E              A
   E poder descobrir
   E           A
   O segredo desse jogo
           F                G
   Que é o amor ( que é o amor)

C#m    G#m
   Eu sei
C#m                   G#m
   Que pela porta da frente eu vou entrar
E A E                  A
   Pelos cantos desse mundo
                F                G
   Vou te encontrar (vou te encontrar)

Refrão:
A        F
Eu faço coisas que
   G         A
Você parece nem notar
 B
Foi tudo em vão
         C#
(Tudo em vão)
  C#m       C#m         G#m
E|-------4---------4---------------------|
B|-----5---5-----5---5----------4------4-|
G|---6---------6-------6------5---5----5-|
D|-6---------6--------------6-------6--6-|
A|------------------------6------------6-|
E|---------------------------------------|
   E          E            A
E|--------7---------7--------------------|
B|------8---8-----8---8----------5-----5-|
G|---9----------9--------9-----6---6---6-|
D|-9----------9--------------7------7--7-|
A|-------------------------7-----------7-|
E|---------------------------------------|

(repete tudo)
Composição de Samuel Rocha
Colaboração e revisão:
  • Samuel Rocha
46 exibições
    • ½ Tom
    • A
    • Bb
    • B
    • C
    • Db
    • D
    • Eb
    • E
    • F
    • F#
    • G
    • Ab
  • Adicionar à lista

    0 comentários

    Ver todos os comentários

    Conseguiu tocar?

    0 Tocaram 0 Ainda não

    Grave um vídeo tocando Um Dia Qualquer e nos envie!

    00:00 / 00:00
    outros vídeos desta música
    repetir qualidade Automático
    Outros vídeos desta música
    00:00 / 00:00
    Automático

    Cifra Club Pro

    Aproveite o Cifra Club com benefícios exclusivos e sem anúncios
    Cifra Club Pro
    Aproveite o Cifra Club com benefícios exclusivos e sem anúncios
    OK