Cifra Club

Boukensha Tachi

Do As Infinity

Cifra: Principal (violão e guitarra)
Selo Cifra Club: esta cifra foi revisada para atender aos critérios oficiais da nossa Equipe de Qualidade.
tom: F
[Intro]

E|------------------------------------------|
B|--3------5-------2-------0----------------|
G|------------------------------------------|
D|--3------5-------3-------0----------------|
A|------------------------------------------|
E|------------------------------------------|

Hitosuji no kemuri tachinobori yuki 
Jumon wo tonaenagara 
Hitomi tojite yuku
Me no mae ni hirogaru uchuu no sora 
Uke ireru sube wa mata 
Shinwa no naka e to

F             Eb     D       Eb
Yuragu kagerou kakoku na tabi 
D        Eb            F
Michinori wa tooki kedo 

        D
Ato ni tsuzuke

Eb
Tatta hitotsu dake 
Bb
Ai wo mune ni daki 
C               F     D
Boku wa ima tabidatte yuku 
Eb
new frontier tadoritsuku 
Bb
Mayoi tsuzuketeta 
C       D           Eb
Yoru ni owari wo tsuge

E|------------------------------------------|
B|--3------5-------2-------0----------------|
G|------------------------------------------|
D|--3------5-------3-------0----------------|
A|------------------------------------------|
E|------------------------------------------|

Hokorashiku tsuki susumu beki basho e 
Oozora wo mainagara 
Sakebu michishirube

E|------------------------------------------|
B|--3------5-------2-------0----------------|
G|------------------------------------------|
D|--3------5-------3-------0----------------|
A|------------------------------------------|
E|------------------------------------------|

Kawaku ame uruosu megumi wa itsu 
Furisosogu neppa kara 
Ubai kakimawasu

F             Eb  D       Eb
Kimagure de wa iki tsukenai 
D           Eb
Omoi tsuki nado 
F                D
Makari tooru koto naku

Eb
Tatoe kuchihatete 
Bb
Subete nakushite mo 
C            F        D
Kitto kuyami wa shinai 
Eb
new frontier matteiro 
Bb
Itsuka kono ato ni 
C        D           Eb
Michi wa dekiru darou

[Solo]

E|--------------------------------------------|
B|--------------------------------------------|
G|--------------------------------------------|
D|----------------------1-3-------------------|
A|---------------------1----------------------|
E|-3-3-1-3-1-3-3-1-3--------------------------|

E|--------------------------------------------|
B|--------------------------------------------|
G|--------------------------------------------|
D|----------------------1-3-------------------|
A|---------------------1----------------------|
E|-3-3-1-3-1-3-3-1-3--------------------------|



E|--------------------------------------------|
B|--------------------------------------------|
G|--------------------------------------------|
D|---------------------1-3--------------------|
A|-1-1-0-1-0-1-1-0-1--1-----------------------|
E|--------------------------------------------|

E|--------------------------------------------|
B|--------------------------------------------|
G|--------------------------------------------|
D|----------------------1-3--4----------------|
A|-1-1-0-1-0-1-1-0-1--1-----------------------|
E|--------------------------------------------|

Eb
Tatta hitotsu dake 
Bb
Ai wo mune ni daki 
C               F     D
Boku wa ima tabidatte yuku 
Eb
new frontier tadoritsuku 
Bb
Mayoi tsuzuketeta 
C       D           Eb
Yoru ni owari wo tsuge

Eb
Tatoe kuchihatete 
Bb
Subete nakushite mo 
C            F        D
Kitto kuyami wa shinai 
Eb
new frontier matteiro 
Bb
Itsuka kono ato ni 
C        D           Eb
Michi wa dekiru darou

E|------------------------------------------|
B|--3------5-------2-------0----------------|
G|------------------------------------------|
D|--3------5-------3-------0----------------|
A|------------------------------------------|
E|------------------------------------------|
Outros vídeos desta música
    64 exibições
      • ½ Tom
      • A
      • Bb
      • B
      • C
      • Db
      • D
      • Eb
      • E
      • F
      • F#
      • G
      • Ab
    • Adicionar à lista

    Afinação da cifra

    Afinador online

      0 comentários

      Ver todos os comentários

      Entre para o Cifra Club PRO

      Tenha acesso a benefícios exclusivos no App e no Site

      • Chega de anúncios

      • Badges exclusivas

      • Mais recursos no app do Afinador

      • Atendimento Prioritário

      • Aumente seu limite de lista

      • Ajude a produzir mais conteúdo

      Cifra Club Pro

      Aproveite o Cifra Club com benefícios exclusivos e sem anúncios
      Cifra Club Pro
      Aproveite o Cifra Club com benefícios exclusivos e sem anúncios
      Ops (: Contenido disponible sólo en portugués.
      OK