Cifra Club

Aprenda

Enrai

Do As Infinity

Cifra: Principal (violão e guitarra)
Tom: C
It goes like this:
Intro
Verse
Bridge
Chorus x2
Intro
Verse
Bridge
Chorus x2
Guitar - Violin Instrumental x2
Verse
Bridge
Chorus x2 (a bit different, modify as needed)
Ending

That's all folks! Pretty simple huh? Enjoy!

Intro:
E||------------3---------|------------3---------|------------3---------|
B||--3--------------3----|--3--------------3----|--3--------------3----|
G||-------0--------------|-------0--------------|-------0--------------|
D||----------------------|--0-------------------|----------------------|
A||--3-------------------|----------------------|--2-------------------|
E||----------------------|----------------------|----------------------|


                                                                     
------------3---------|------------3---------|------------3---------|
--3--------------3----|--3--------------3----|--3--------------3----|
-------0--------------|-------0--------------|-------0--------------|
----------------------|----------------------|--0-------------------|
----------------------|--3-------------------|----------------------|
--0-------------------|----------------------|----------------------|


                                                                     
------------3----3----|
--3--------------3----|
-------0---------0----|
----------------------|
----------------------|
--0---------0----0----|

Verse:

E||------------3---------|------------3---------|------------3---------|
B||--3--------------3----|--3--------------3----|--3--------------3----|
G||-------0--------------|-------0--------------|-------0--------------|
D||----------------------|--0-------------------|----------------------|
A||--3-------------------|----------------------|--2-------------------|
E||----------------------|----------------------|----------------------|


                                                                     
------------3---------|------------3---------|------------3---------|
--3--------------3----|--3--------------3----|--3--------------3----|
-------0--------------|-------0--------------|-------0--------------|
----------------------|----------------------|--0-------------------|
----------------------|--3-------------------|----------------------|
--0-------------------|----------------------|----------------------|


                                                                     
------------3---------|------------3---------|
--3--------------3----|--3--------------3----|
-------0--------------|-------0--------------|
----------------------|--2-------------------|
----------------------|----------------------|
--0-------------------|----------------------|

Bridge:

E||------------3---------|------------3---------|----------------------|
B||--2--------------2----|--2--------------2----|------------5---------|
G||-------0--------------|-------0--------------|--4--------------4----|
D||----------------------|--2-------------------|-------4--------------|
A||--1-------------------|----------------------|--2-------------------|
E||----------------------|----------------------|----------------------|


                                                              
--0------------|
--5------------|
--4------------|
--4------------|
--2------------|
---------------|

Chorus: More or less same as verse (ain't that nice? Thanks Dai-san!)

E||------------3---------|------------3---------|------------3---------|
B||--3--------------3----|--3--------------3----|--3--------------3----|
G||-------0--------------|-------0--------------|-------0--------------|
D||----------------------|--0-------------------|----------------------|
A||--3-------------------|----------------------|--2-------------------|
E||----------------------|----------------------|----------------------|


                                                                     
------------3---------|------------3---------|------------3---------|
--3--------------3----|--3--------------3----|--3--------------3----|
-------0--------------|-------0--------------|-------0--------------|
----------------------|----------------------|--0-------------------|
----------------------|--3-------------------|----------------------|
--0-------------------|----------------------|----------------------|


                                                                     
------------3---------|------------3---------|
--3--------------3----|--3--------------3----|
-------0--------------|-------0--------------|
----------------------|--2-------------------|
----------------------|----------------------|
--0-------------------|----------------------|

Guitar - Violin Instrumental:

E||-------3----1---------|----------------------|----------------------|
B||--4--------------4----|--3----1---------3----|--3---------3---------|
G||----------------------|------------2---------|--0----0---------0----|
D||--1-------------------|--0-------------------|----------------------|
A||----------------------|----------------------|----------------------|
E||----------------------|----------------------|--3-------------------|


                                                                    
--3------------------|
-------3-------------|
------------0--------|
---------------------|
---------------------|
--3------------------|

Ending:

E||-------3----1---------|----------------------|----------------------|
B||--4--------------4----|--3----1---------3----|--3---------3---------|
G||----------------------|------------2---------|--0----0---------0----|
D||--1-------------------|--0-------------------|----------------------|
A||----------------------|----------------------|----------------------|
E||----------------------|----------------------|--3-------------------|


                                                                    
--3------------------|-------3----1---------|----------------------|
-------3-------------|--4--------------4----|--3----1---------3----|
------------0--------|----------------------|------------2---------|
---------------------|--1-------------------|--0-------------------|
---------------------|----------------------|----------------------|
--3------------------|----------------------|----------------------|


                                           
----------------------|--3----|----------||
--3---------3---------|--3----|----------||
--0----0---------0----|--0----|----------||
----------------------|-------|----------||
----------------------|-------|----------||
--3-------------------|--3----|----------||


Lyrics:

sukima nai nyuudougumo no shita
ano hi wa haha to futari
higasa wo sashite Te wo hikare
aruiteta natsu no michi

semishigure ni kiesou na koe de
nando mo itta
"minna hitori de ikite yuku mono
furikaeranai"

osanasugiru watashi wa kitto
kotaerarenai koto wo kiki
anata no senaka de itsu shika
nemutteta naki mo sezu

kore kara kuru yuudachi no yokan
hibiku enrai
are kara no watashitachi wo maru de
uranau you na
   ano hi no anata ni chikadzuite
hajimete wakaru
totsuzen shagamikonde nagashita
saigo no namida

anata no kimochi
ano natsu no nioi

English:

Under the endless clouds,
I was with my mother that day.
I put up a parasol; she pulled my hand
along the summer path we tread.

In the cicada rains, with a voice that
seems to disappear, again and again
I said, "Everyone lives their lives alone,
never turning to look back."

Being too childish, I 
ask questions that have no answer.
I eventually fell asleep, leaning against
your back, without even crying.

I could sense the coming rain from the
echoing, distant thunder.
It's as if it foretold
what would happen to us after that.
   Coming closer to you that day,
I understood for the first time.
I suddenly huddled down and shed
my final tears.

Your feelings;
The smell of that summer.
 
3.178 exibições
  • Simplificar cifra
    • ½ Tom
    • A
    • Bb
    • B
    • C
    • Db
    • D
    • Eb
    • E
    • F
    • F#
    • G
    • Ab
  • Adicionar à lista

    0 comentários

    Mostrar mais comentários

    Conseguiu tocar?

    1 Tocaram 0 Ainda não

    Grave um vídeo tocando Enrai e mande pra gente!

    00:00 / 00:00
    outros vídeos desta música
    repetir qualidade Automático
    Outros vídeos desta música
    00:00 / 00:00
    Automático

    Cifra Club Pro

    Aproveite o Cifra Club com benefícios exclusivos e sem anúncios
    7 dias grátis
    Cifra Club Pro
    Aproveite o Cifra Club com benefícios exclusivos e sem anúncios
    7 dias grátis
    OK