Cifra Club

Aprenda

Tangerine dream

Do As Infinity

Cifra: Principal (violão e guitarra)
Tom: G
Tune 1/2 note up

Intro:
(Am G F) x2

Am    G      F (F/G) Am    G     F
zawameku machi ga nemuri ni tsuite

C     G     Am    F G  C   G     Am     (F G)   
ii you no nai fuan ga kubi o motageru

F#m  E   D5   (D5/E) F#m    E    D5 (E)
yume mo negai mo tsukamaetakute

A     E    F#m (F/G) D    A    E     D5
oikakereba ou hodo ni kyori o kanjiru

A    E    F#m   D   A    E    D
nido to nai kono toki nigezu ni
A    E    F#m   D   A    E    D
tomaru koto naku koto sonna no

D5
itsudemo dekiru ne

Intro

Am    G      F  (F/G) Am    G     F (F/G)
futo ki ga tsuku to ojikezuiteru

C     G     Am    F G  C   G     Am     E
nichijou no kurikaeshi ni narehajimeteru

A    E    F#m   D   A    E    D
hitamuki ni motomete kizutsuki
A    E    F#m   D   A    E    D
kaketeita yureteru jidai o

D5
ano koro bokura wa

Solo Chords: F#m  E   B    F#m   E   D

Solo:
E||--------------------------|-----------------------|-------------------------|
B||--12b---12p10-------12b---|--12-------------------|--------10----9----------|
G||--------------------------|------------------8----|--11---------------11----|
D||--------------------------|--------8/---9---------|-------------------------|
A||--------------------------|-----------------------|-------------------------|
E||--------------------------|-----------------------|-------------------------|
                                                                        
-----------------------|------------------------|----------------------|
--9--------------------|--10/---12--------------|----------------------|
-------11----9----8----|------------------------|----------------------|
-----------------------|------------------------|-------7---------7----|
-----------------------|--------------9h7p9-----|------------9---------|
-----------------------|------------------------|----------------------|
                                                                        
------------------------|-----------------------|----------------------|
------------------------|-----------------------|----------------------|
-------------11----9----|-----------------------|----------------------|
--9/---11---------------|--11----9----7---------|-------9----7---------|
------------------------|------------------9----|--7--------------9----|
------------------------|-----------------------|----------------------|
                                                                             
-------12p9-------------|--------14p9-------------|--------12p9-------------|
------------------12----|--10---------------12----|--10---------------12----|
------------------------|-------------------------|-------------------------|
------------------------|-------------------------|-------------------------|
--7---------------------|-------------------------|-------------------------|
------------------------|-------------------------|-------------------------|
                                                 
--------------------------|--------------------||
--10----12----10----12b---|--12p10-------12b---||
--------------------------|--------------------||
--------------------------|--------------------||
--------------------------|--------------------||
--------------------------|--------------------||

E       A       E       (F#m)
[genki datta?] juwaki no mukou
E       A       G       D       A               
itsumo no koe yuuki o kureru yo

A    E    F#m   D   A    E    D
hohoemi mo namida mo subete o
A    E    F#m   D   A    E    D
uketomete ikiteku mirai ni
A    E    F#m   D   A    E    D
itsu no hi ka itsuka wa kanarazu
A    E    F#m   D   A    E    D
bokutachi no negai wa todoku to

D5
shinjiteiru kara

Intro
Colaboração e revisão:
  • Geraldo Neto
3.446 exibições
    • ½ Tom
    • A
    • Bb
    • B
    • C
    • Db
    • D
    • Eb
    • E
    • F
    • F#
    • G
    • Ab
  • Adicionar à lista

    0 comentários

    Mostrar mais comentários

    Conseguiu tocar?

    1 Tocaram 0 Ainda não

    Grave um vídeo tocando Tangerine dream e mande pra gente!

    00:00 / 00:00
    outros vídeos desta música
    repetir qualidade Automático
    Outros vídeos desta música
    00:00 / 00:00
    Automático

    Cifra Club Pro

    Aproveite o Cifra Club com benefícios exclusivos e sem anúncios
    7 dias grátis
    Cifra Club Pro
    Aproveite o Cifra Club com benefícios exclusivos e sem anúncios
    7 dias grátis
    OK