Cifra Club

Aprenda

Tooku Made

Do As Infinity

Cifra: Principal (violão e guitarra)
Tom: F#
       GM7
so faraway
         Asus4
just faraway
     Bm7    A
doko made demo
        GM7         Asus4    GM7
dare datte kunou shite aruiteku
 D       A        Em7      D         G  D  Em7
-----------------|------------------|
-----------------|------------------|
---7-6-7-9-7-6-7-|---7-6-7-9-11-9-7-|
-0---------------|-7----------------|
-----------------|------------------|
-----------------|------------------|
D          G D Em7
-----------    |---------------|--------
-----------    |---------------|--------
-4-6-4-6-7-    |-4-6-4-6-7-7/9-|-7------
-----------    |---------------|--------
-----------    |---------------|--------
-----------    |---------------|--------
 
D       Asus4    Em7     Bm   G D Em7
ano oka no chizu sae (miushinatte)
        G D  Em7          D
iroaseteku     kono tokimeki
      Asus4  Em7        Bm    G D Em7
mikazuki no komorebi (itsu no ma ni ka)
              G D Em7       
boku terashiteru   kono basho kara
G D Asus4             D
         hajimete miyou

D7     GM7
so faraway
         Asus4
just faraway
     Bm7    Asus4
doko made demo
  A     GM7         Asus4    Bm7  Am6
dare datte kunou shite aruiteku
        GM7
night & day
         Asus4  Bm7    Asus4
sou sakende kizutsuite mo
     A      GM7
just day by day
       Asus4     GM7
ashita wo mitsukeru
D        Asus4    Em7
yoru dakara ano hoshi wa 

         Bm  G   D  Em7
(kagayakeru yo)
             G D  Em7        D
shitte imasu ka?    omoidashite
        Asus4 Em7
hibiwareta daichi ni 
       Bm G  D Em7
(mizu ageyou)
            G D 
hitotsubu zutsu   
Em7          G  D Asus4
  ryoute de ame
             D
atsumete miyou

D7       GM7
sou waratte
     Asus4
waratte
    Bm7      Asus4
kuyashikutte mo
  A     GM7        Asus4    Bm7 Am6
dare datte kimi datte aruiteku
       GM7
nakanaide
        Asus4  Bm7      Asus4
boku datte hitori nanda yo
  A        GM7
kimi ni shika
     Asus4    GM7
mienai so faraway 


 Bb             F            Ab      Eb
--------------------------------11-10-11-13-|
-11----11----10----10----9----9-------------|
----10----10----10----10---10---------------|
--------------------------------------------|
--------------------------------------------|
--------------------------------------------|
Bb           F            Ab     Eb
--------------------------------------------------
-11----11----10-----10----9----9------------------
----10----10----10----10----10---10--8-7-8-10-----
--------------------------------------------------
--------------------------------------------------
--------------------------------------------------
 Bb          F           Ab      Eb            Asus4
--------------------------------11-10-11-13-|
-11----11----10----10----9----9-------------|
----10----10----10----10---10---------------|
--------------------------------------------|
--------------------------------------------|
--------------------------------------------|

---------------------------------
-11----9----6-6-6-4-4-4-2-2-2----
---------------------------------
---------------------------------
---------------------------------
---------------------------------
       GM7
so faraway
         Asus4
just faraway
     Bm7    Asus4
doko made demo
  A     GM7         Asus4    Bm7  Am6
dare datte kunou shite aruiteku
        GM7
night & day
         Asus4  Bm7    Asus4
sou sakende kizutsuite mo
     A      GM7
just day by day
       Asus4     GM7
ashita wo mitsukeru
D       A        Em7      D         G  D  Em7
-----------------|------------------|
-----------------|------------------|
---7-6-7-9-7-6-7-|---7-6-7-9-11-9-7-|
-0---------------|-7----------------|
-----------------|------------------|
-----------------|------------------|
D          G D Em7
-----------    |-------------------|
-----------    |-8-7-5-------------|
-4-6-4-6-7-    |-------7-6-4-6-6/7-|
-----------    |-------------------|
-----------    |-------------------|
Composição de Do As Infinity
2.880 exibições
    • ½ Tom
    • A
    • Bb
    • B
    • C
    • Db
    • D
    • Eb
    • E
    • F
    • F#
    • G
    • Ab
  • Adicionar à lista

    0 comentários

    Mostrar mais comentários

    Conseguiu tocar?

    0 Tocaram 0 Ainda não

    Grave um vídeo tocando Tooku Made e mande pra gente!

    00:00 / 00:00
    outros vídeos desta música
    repetir qualidade Automático
    Outros vídeos desta música
    00:00 / 00:00
    Automático

    Cifra Club Pro

    Aproveite o Cifra Club com benefícios exclusivos e sem anúncios
    7 dias grátis
    Cifra Club Pro
    Aproveite o Cifra Club com benefícios exclusivos e sem anúncios
    7 dias grátis
    OK