Cifra Club

Aprenda

Building a Better Me

Dogwood

Cifra: V2 (violão e guitarra)
Já pensou em usar uma coleção de roupas do Cifra Club? Responda as perguntas abaixo e nos ajude nessa missão! →
tom: A
Intro:           x2 clean than x4 distorted
E|-----------------------------------------------
B|-----------------------------------------------
G|-----------------------------------------------
D|-----------------------------------------------
A -11-11-11-11-11-11-9-9/13-14-13----------------
E|-----------------------------------------------

Verse:
E|----------------------------------------------------------------------------------
B|----------------------------------------------------------------------------------
G|----------------------------------------------------------------------------------
D|----------------------------------2-2-2-2—6-6-6-6—2-2-2-2—6-6-6-6-----------------
A -6-6-6-6—4-4-4-4—6-6-6-6—4-4-4-4——2-2-2-2—4-4-4-4-2-2-2-2-4-4-4-4-----------------
E -4-4-4-4—2-2-2-2—4-4-4-4—2-2-2-2--------------------------------------------------

Chorus:
E|---------------------------------------------------------------
B|---------------------------------------------------------------
G|---------------------------------------------------------------
D -4-4-4-4-4-4-4-4—6-6-6-6-6-6-6-6-----------------2XXXX---------
A -2-2-2-2-2-2-2-2—4-4-4-4-4-4-4-4—6-6-6-6-6-6-6-6—2XXXX---------
E|---------------------------------4-4-4-4-4-4-4-4-0XXXX---------

Bridge:
E|----------------------------------------
B|----------------------------------------
G -11--9--7--------11--9--6---------------
D|----------------------------------------
A|--9--7--5---------9--7--4---------------
E|----------------------------------------

Fill (comes after bridge):
E|--------------------------------------------------
B|--------------------------------------------------
G|--------------------------------------------------
D|-------------------------------------------------
A -4-4-4-4-4-4-4-4 ~ ~ ~  4-4-4-4-4-4-4-4---------
E -2-2-2-2-2-2-2-2 ~ ~ ~  2-2-2-2—2-2-2-2----------
Compositor não encontrado.
Colaboração e revisão:
  • Tulio Anderson
13 exibições
    • ½ Tom
    • A
    • Bb
    • B
    • C
    • Db
    • D
    • Eb
    • E
    • F
    • F#
    • G
    • Ab
  • Adicionar à lista

    0 comentários

    Ver todos os comentários

    Conseguiu tocar?

    0 Tocaram 0 Ainda não

    Grave um vídeo tocando Building a Better Me e nos envie!

    00:00 / 00:00
    Outros vídeos desta música
    Repetir Qualidade Automático
    Outros vídeos desta música
    00:00 / 00:00
    Automático

    Cifra Club Pro

    Aproveite o Cifra Club com benefícios exclusivos e sem anúncios
    Cifra Club Pro
    Aproveite o Cifra Club com benefícios exclusivos e sem anúncios
    OK