Cifra Club

Aprenda

Walk Away

Dokken

Cifra: Principal (violão e guitarra)
Tom: D
Violão 3x: 
E|--------1--0--------------------------|-------------------------------------------|
B|--------------3-------3------------3--|-----------3---------------3----------3----|
G|-------------------------0---------0--|--------------0---------------0-------2----|
D|----0-----------------------0------0--|-----------------0---------------0----0----|
A|-------------------3---------------2--|------0--1---------------3-----------------|
E|--------------------------------------|--3----------------------------------------|

(To see what I could see) Depois repete o peimeiro dedilhado
E|-----------------------------|
B|----------3-------3-----3----|
G|--------0-------0---0----0---|
D|------0--------------------0-|
A|----1-------1-2-------3------|
E|-----------------------------|

A faded picture from your heart
Was all you left for me
I'm still waiting, stanging here
To see what I could see

Your love i borrowed just like time
It wasn't mine to keep
But the love we shared
I thought was there

Refrão:
And now you have to leave
E|--------------------------------------------------------------------------------------------------------------|
B|--------------------------------------------------------------------------------------------------------------|
G|--3---------5----------------3----5----7----3-----------3----5----7-----------3---5------3--3---5--5---3--5---|
D|--3----5----5----7----3------3----5----7----3----3------3----5----7----3------3---5--3---3--3---5--5---3--5-7-|
A|--1----5----3----7----3----0-1----3----5----1----3----0-1----3----5----3----0-1---3--3---1--1---3--3---1--3-4-|
E|-------3---------5----1--------------------------1---------------------1-------------1------------------------|

Just walk away
There'll be no more tomorrows
Just walk away
You won't be there for me
From far away
I tried to say I'm sorry
But I can't find a way
(To) just walk away

E|-------------------------------------|
B|-------------------------------------|
G|-----------------0---2--3------------|
D|---7----5---5----0---2--3-----5---7--|
A|---5----3---2---------------0-3---5--|
E|-------------------------------------|

Intro:
Couldn't see for i was blind
The hurt you hide inside
I didn't mean to break your heart
I wish it had been mine

And as another day unfolds
Don't know what it means
Was it love we had
Or love gone bad

Refrão
Still the love we need
E|--------------------------------------------------------------------------------------------------------------
B|--------------------------------------------------------------------------------------------------------------
G|--3---------5----------------3----5----7----3-----------3----5----7-----------3---5------3--3---5--5---3--5---
D|--3----5----5----7----3------3----5----7----3----3------3----5----7----3------3---5--3---3--3---5--5---3--5-7-
A|--1----5----3----7----3----0-1----3----5----1----3----0-1----3----5----3----0-1---3--3---1--1---3--3---1--3-4-
E|-------3---------5----1--------------------------1---------------------1-------------1------------------------
Just walk away
There'll be no more tomorrows
Just walk away
You won't be there for me
From far away
I tried to say I'm sorry
But I can't find a way
(To) just walk away

solo - D5 Bb5 F5 C5 - D5 Bb5 F5 Bb5 C5 - D5 Bb5 F5 C5 - Bb5

intro
I'm still standing, waiting here
Waiting for a sign
I didn't mean to break your heart

Refrão
I wish it had been mine
E|--------------------------------------------------------------------------------------------------------------
B|--------------------------------------------------------------------------------------------------------------
G|--3---------5----------------3----5----7----3-----------3----5----7-----------3---5------3--3---5--5---3--5---
D|--3----5----5----7----3------3----5----7----3----3------3----5----7----3------3---5--3---3--3---5--5---3--5-7-
A|--1----5----3----7----3----0-1----3----5----1----3----0-1----3----5----3----0-1---3--3---1--1---3--3---1--3-4-
E|-------3---------5----1--------------------------1---------------------1-------------1-----------------------
Just walk away
There'll be no more tomorrows
Just walk away
You won't be there for me
From far away
I tried to say I'm sorry
But I can't find a way
(To) just walk away

Ai repete ate acabar a musica
E|-------------------------------------|
B|-------------------------------------|
G|-----------------0---2--3------------|
D|---7----5---5----0---2--3-----5---7--|
A|---5----3---2---------------0-3---5--|
E|-------------------------------------|
Just walk away
Yeah, walk away
Just walk away...
Composição de Don Dokken / George Lynch / Jeff Pilson
Colaboração e revisão:
  • vicktor
497 exibições
    • ½ Tom
    • A
    • Bb
    • B
    • C
    • Db
    • D
    • Eb
    • E
    • F
    • F#
    • G
    • Ab
  • Adicionar à lista

    0 comentários

    Mostrar mais comentários

    Conseguiu tocar?

    0 Tocaram 0 Ainda não

    Grave um vídeo tocando Walk Away e mande pra gente!

    00:00 / 00:00
    outros vídeos desta música
    repetir qualidade Automático
    Outros vídeos desta música
    00:00 / 00:00
    Automático

    Cifra Club Pro

    Aproveite o Cifra Club com benefícios exclusivos e sem anúncios
    7 dias grátis
    Cifra Club Pro
    Aproveite o Cifra Club com benefícios exclusivos e sem anúncios
    7 dias grátis
    OK