Cifra Club

Jolene

Dolly Parton

Cifra: Principal (violão e guitarra)
Selo Cifra Club: esta cifra foi revisada para atender aos critérios oficiais da nossa Equipe de Qualidade.
tom: C#m (forma dos acordes no tom de Am) Capotraste na 4ª casa
[Intro] Am

[Dedilhado - Intro]
 
    Am             
E|--------------x---------------------------------|
B|-----------0--x------0h1--------------1p0-------|
G|-----2--------x------0h2-----0----------------0-|
D|--------2-----x-----------------0----------0----| X4
A|--0-----------x------------0----------0---------|
E|--------------x---------------------------------|

[Refrão]

[Dedilhado - Refrão]

Parte 1 de 4
   Am           C               G 
E|----------------------0-------------------------|
B|-----0h1---------1------------------------------|
G|-----0h2---0-----0---------0-----4-----------4--|
D|---2-----0-------2--2---2--------5-----5--------|
A|-0------------3------------------5--------5-----|
E|------------------------------3-----3-----------|

Parte 2 de 4
    Am             
E|--------------x---------------------------------|
B|-----------0--x------0h1--------------1p0-------|
G|-----2--------x------0h2-----0----------------0-|
D|--------2-----x-----------------0----------0----| X2
A|--0-----------x------------0----------0---------|
E|--------------x---------------------------------|

Parte 3 de 4
    G           
E|------------------------------------------------|
B|-----3-------------3-----3-------------3--------|
G|-----0-------0-----------0-------0--------------|
D|-----0----------0--------0----------0-----------|
A|--------0p2-----------------0p2-----------------|
E|--3-------------------3-------------------------|

Parte 4 de 4
    Am             
E|--------------x---------------------------------|
B|-----------0--x------0h1--------------1p0-------|
G|-----2--------x------0h2-----0----------------0-|
D|--------2-----x-----------------0----------0----| X2
A|--0-----------x------------0----------0---------|
E|--------------x---------------------------------|

   Am      C       G       Am
Jolene, Jolene, Jolene, Jolene
     G                    
I`m begging of you please
             Am
Dont`t take my man 
           C       G       Am
Jolene, Jolene, Jolene, Jolene
  G                  
Please don`t take him
                 Am
Just because you    can 

[Primeira Parte]

                  C
Your beauty is beyond compare
       G/B            Am
With flaming locks of auburn hair
     G            
With ivory skin and
                Am
Eyes of emerald    green 
                            C
Your smile is like a breath of spring
      G/B                Am
Your voice is soft like summer rain
    G                     
And I cannot compete with you 
Am
   Jolene

[Segunda Parte]

                       C
He talks about you in his sleep
         G/B           Am
There`s nothing I can do to keep
       G                            
From crying when he calls your name
 Am
Jolene 
                 C
And I can easily understand
     G/B              Am
How you could easily take my man
         G                                
But you don`t know what he means to me
 Am
Jolene 

[Refrão]

           C       G       Am
Jolene, Jolene, Jolene, Jolene
     G                    
I`m begging of you please
             Am
Dont`t take my man 
           C       G       Am
Jolene, Jolene, Jolene, Jolene
  G                  
Please don`t take him
                 Am
Just because you    can  

[Terceira Parte]

                      C
You could have your choice of men
    G              Am
But I could never love again
 G                         Am
He`s the only one for me, Jolene
                    C
I had to have this talk with you
    G          Am
My happines depends on you
    G                         Am
Whatever you decide to do, Jolene

[Refrão Final]

           C       G       Am
Jolene, Jolene, Jolene, Jolene
     G                    
I`m begging of you please
             Am
Dont`t take my man 
           C       G       Am
Jolene, Jolene, Jolene, Jolene
  G                                Am                
Please don`t take him even though you can

Jolene, Jolene
Outros vídeos desta música
    96.221 exibições
      • ½ Tom
      • Am
      • Bbm
      • Bm
      • Cm
      • C#m
      • Dm
      • Ebm
      • Em
      • Fm
      • F#m
      • Gm
      • G#m
    • Adicionar à lista

    Afinação da cifra

    Afinador online

      0 comentários

      Ver todos os comentários

      Entre para o Cifra Club PRO

      Tenha acesso a benefícios exclusivos no App e no Site

      • Chega de anúncios

      • Badges exclusivas

      • Mais recursos no app do Afinador

      • Atendimento Prioritário

      • Aumente seu limite de lista

      • Ajude a produzir mais conteúdo

      Cifra Club Pro

      Aproveite o Cifra Club com benefícios exclusivos e sem anúncios
      Cifra Club Pro
      Aproveite o Cifra Club com benefícios exclusivos e sem anúncios
      Ops (: Contenido disponible sólo en portugués.
      OK