Cifra Club

talk dirty

Jason Donovan

Cifra: Principal (violão e guitarra)
Selo Cifra Club: esta cifra foi revisada para atender aos critérios oficiais da nossa Equipe de Qualidade.
tom: G
intro
------------------|
---4/5------------|
------------------|
------------------|
------------------|
------------------|

---------------------------------|
---------------------------------|
---------5/6--6/5----------------|
---------------------------------|
---------------------------------|
---------------------------------|

---------------------------------|
---------------------------8-6-8-6-9-10|
-------------------------8-------|
------------------4-5---7--------|
------------3-3-3----5-6---------|
---------------------------------|
Outros vídeos desta música
    1.025 exibições
      • ½ Tom
      • A
      • Bb
      • B
      • C
      • Db
      • D
      • Eb
      • E
      • F
      • F#
      • G
      • Ab
    • Adicionar à lista

    Afinação da cifra

    Afinador online

      0 comentários

      Ver todos os comentários

      Entre para o Cifra Club PRO

      Tenha acesso a benefícios exclusivos no App e no Site

      • Chega de anúncios

      • Badges exclusivas

      • Mais recursos no app do Afinador

      • Atendimento Prioritário

      • Aumente seu limite de lista

      • Ajude a produzir mais conteúdo

      Cifra Club Pro

      Aproveite o Cifra Club com benefícios exclusivos e sem anúncios
      Cifra Club Pro
      Aproveite o Cifra Club com benefícios exclusivos e sem anúncios
      OK