Cifra Club

With Or Without You

Dope

Cifra: Principal (violão e guitarra)
Selo Cifra Club: esta cifra foi revisada para atender aos critérios oficiais da nossa Equipe de Qualidade.
tom: E
E|-------------------|-------------------|
B|-------------------|-------------------|
G|-------------------|-------------------|
D|-4-------(4)---4---|--2---2---2----2---|
A|-------------------|-------------------|
E|-------------------|-------------------|
|
| Gtr IV
| E E E Q     Q   E    Q.    Q    Q   E
E|-------------------|-------------------|
B|-------9-----7---9-|-10---------10-----|
G|-6---6-------------|--------9--------9-|
D|---7---------------|-------------------|
A|-------------------|-------------------|
E|-------------------|-------------------|


                                       Q=70
   Q   Q    Q    Q       W
E|---------------------|--------------------------|
B|---------------------|--------------------------|
G|---------------------|--------------------------|
D|--0---0----0----0----|--2-----------------------|
A|---------------------|--------------------------|
E|---------------------|--------------------------|
|
|  Q.     Q    Q    E    E  E  E  E  E  E  E  E
E|---------------------|--------------------------|
B|-12----------12------|-12-14-14-14-14-17-17-17--|
G|--------11--------11-|--------------------------|
D|---------------------|--------------------------|
A|---------------------|--------------------------|
E|---------------------|--------------------------|


                  Gtr I
   +W             W          W
E|-------------| |-----------|-------||
B|-------------| |o----------|------o||
G|-------------| |-----------|-------||
D|--(2)--------| |-----------|-------||
A|-------------| |o----------|------o||
E|-------------| |-----------|-------||
|
|  +W             W          W
E|-------------| |-----------|-------||
B|-(17)--------| |o----------|------o||
G|-------------| |-----------|-------||
D|-------------| |-----------|-------||
A|-------------| |o----------|------o||
E|-------------| |-----------|-------||


   <           <
   W           W
E|-----------|-------|
B|-----------|-------|
G|-11--------|-------|
D|-----------|-11----|
A|-----------|-------|
E|-----------|-------|

  W           S  S  S  S  S  S  S  S  S  S  S  S  S  S  S  S
E|----------|-------------------------------------------------|
B|----------|-------------------------------------------------|
G|----------|-------------------------------------------------|
D|----------|-------------------------------------------------|
A|----------|-11h12p11h12p11h12p11h12p11h12p11h12p11h12p11h12-|
E|----------|-------------------------------------------------|


  PM----|         PM----|
  S S S S S S S S S S S S S S S S
E|---------------------------------|
B|---------------------------------|
G|---------------------------------|
|-4-4-4-4-7-7-7-7-0-0-0-0-2-2-2-2-|
|-4-4-4-4-7-7-7-7-0-0-0-0-2-2-2-2-|
|-4-4-4-4-7-7-7-7-0-0-0-0-2-2-2-2-|


  PM----|         PM----|
  S S S S S S S S S S S S S E.
E|------------------------------|
B|------------------------------|
G|------------------------------|
D|-4-4-4-4-7-7-7-7-0-0-0-0-2----|
A|-4-4-4-4-7-7-7-7-0-0-0-0-2----|
E|-4-4-4-4-7-7-7-7-0-0-0-0-2----|

  W          +H  +S  +S  +S  +S  +S  E.
E|----------|-------------------------------|
B|----------|-------------------------------|
G|----------|-------------------------------|
D|-4--------|-(4)-(4)-(4)-(4)-(4)-(4)-------|
A|-4--------|-(4)-(4)-(4)-(4)-(4)-(4)-------|
E|-4--------|-(4)-(4)-(4)-(4)-(4)-(4)-------|


  PM--|   PM--|   PM----------|     PM--------------------------|
  S S S S S S S S S S S S S S S S   S S S S S S S S S S S S S S S S
E|-----------------------0---------|-----------------------0---------|
B|-----2-------2-------2---2---2---|-----2-------2-------2---2---2---|
G|---2-------2-------2-------2-----|---2-------2---2---2-------2-----|
D|-4-------4-------4---------------|-4-------4-------4---------------|
A|---------------------------------|---------------------------------|
E|---------------------------------|---------------------------------|


  PM------------------------------------------------|
  S S S S S S S S S S S S S S S S   S S S S S S S S S S S S S S S S
E|-----------------------0---------|---------------2-------4---------|
B|-----2-------2-------2---2---2---|-----2-------2---2---2---2-------|
G|---2-------2-------2-------2-----|---2-------2-------2-------2-----|
D|-4-------4-------4---------------|-4-------4-------------------4---|
A|---------------------------------|---------------------------------|
E|---------------------------------|---------------------------------|


  PM----------------------------------------------|
  S S S S S S S S S S S S S S S S   S S S S S S S S S S S S S S S S
E|---------------------------------|---------------------------------|
B|---------------------------------|---------------------------------|
G|---------------------------------|---------------------------------|
|-4-4-4-4-7-7-7-7-0-0-0-0-2-2-2-2-|-4-4-4-4-7-7-7-7-0-0-0-0-2-2-2-2-|
|-4-4-4-4-7-7-7-7-0-0-0-0-2-2-2-2-|-4-4-4-4-7-7-7-7-0-0-0-0-2-2-2-2-|
|-4-4-4-4-7-7-7-7-0-0-0-0-2-2-2-2-|-4-4-4-4-7-7-7-7-0-0-0-0-2-2-2-2-|


  S S S S Q  S S S S Q    S S S S Q  S S S S Q
E|-----------------------|-----------------------|
B|---------7----------5--|---------3----------5--|
G|---------6----------4--|---------2----------4--|
D|-4-4-4-4-4--2-2-2-2-2--|-0-0-0-0-0--2-2-2-2-2--|
A|-4-4-4-4-4--2-2-2-2-2--|-0-0-0-0-0--2-2-2-2-2--|
E|-4-4-4-4-4--2-2-2-2-2--|-0-0-0-0-0--2-2-2-2-2--|

  S S S S Q  S S S S Q    S S S S Q  S S S S S E.
E|-----------------------|-------------------------|
B|---------7----------5--|---------3---------------|
G|---------6----------4--|---------2---------------|
D|-4-4-4-4-4--2-2-2-2-2--|-0-0-0-0-0--2-2-2-2-2----|
A|-4-4-4-4-4--2-2-2-2-2--|-0-0-0-0-0--2-2-2-2-2----|
E|-4-4-4-4-4--2-2-2-2-2--|-0-0-0-0-0--2-2-2-2-2----|

  W          +H     +Q   Q
E|----------|----------------|
B|----------|----------------|
G|----------|----------------|
D|-4--------|-(4)----(4)-----|
A|-4--------|-(4)----(4)-----|
E|-4--------|-(4)----(4)-----|


  PM------------------------------------------------------------|
  S S S S S S S S S S S S S S S S   S S S S S S S S S S S S S S S S
E|-----------------------0---------|-----------------------0---------|
B|-----2-------2-------2---2---2---|-----2-------2-------2---2---2---|
G|---2-------2-------2-------2-----|---2-------2---2---2-------2-----|
D|-4-------4-------4---------------|-4-------4-------4---------------|
A|---------------------------------|---------------------------------|
E|---------------------------------|---------------------------------|


  PM------------------------------------------------|
  S S S S S S S S S S S S S S S S   S S S S S S S S S S S S S S S S
E|-----------------------0---------|---------------2-------4---------|
B|-----2-------2-------2---2---2---|-----2-------2---2---2---2-------|
G|---2-------2-------2-------2-----|---2-------2-------2-------2-----|
D|-4-------4-------4---------------|-4-------4-------------------4---|
A|---------------------------------|---------------------------------|
E|---------------------------------|---------------------------------|


  PM----------------------------------------------|
  S S S S S S S S S S S S S S S S   S S S S S S S S S S S S S S S S
E|---------------------------------|---------------------------------|
B|---------------------------------|---------------------------------|
G|---------------------------------|---------------------------------|
|-4-4-4-4-7-7-7-7-0-0-0-0-2-2-2-2-|-4-4-4-4-7-7-7-7-0-0-0-0-2-2-2-2-|
|-4-4-4-4-7-7-7-7-0-0-0-0-2-2-2-2-|-4-4-4-4-7-7-7-7-0-0-0-0-2-2-2-2-|
|-4-4-4-4-7-7-7-7-0-0-0-0-2-2-2-2-|-4-4-4-4-7-7-7-7-0-0-0-0-2-2-2-2-|


    S S S S Q  S S S S Q    S S S S Q  S S S S Q
||------------------------|-------------------------||
||o---------7----------5--|---------3----------5---o||
||----------6----------4--|---------2----------4----||
||--4-4-4-4-4--2-2-2-2-2--|-0-0-0-0-0--2-2-2-2-2----||
||o-4-4-4-4-4--2-2-2-2-2--|-0-0-0-0-0--2-2-2-2-2---o||
||--4-4-4-4-4--2-2-2-2-2--|-0-0-0-0-0--2-2-2-2-2----||


  Gtr II
   E    E    E  E  E    E    E  E    E    E    E  E  E    E    E  E
|-17---16------17-16--------16-17-|-17---16------17-16--------16----|
|-----------17---------17---------|-----------17---------17------17-|
E|---------------------------------|---------------------------------|
B|---------------------------------|---------------------------------|
G|---------------------------------|---------------------------------|
|---------------------------------|---------------------------------|
|
| Gtr I
|  S S  S S  Q     S S  S S  Q       S S  S S  Q     S S  S S  Q
E|---------------------------------|---------------------------------|
B|------------7---------------5----|------------3---------------5----|
G|------------6---------------4----|------------2---------------4----|
D|--4-4--4-4--4-----2-2--2-2--2----|--0-0--0-0--0-----2-2--2-2--2----|
A|--4-4--4-4--4-----2-2--2-2--2----|--0-0--0-0--0-----2-2--2-2--2----|
E|--4-4--4-4--4-----2-2--2-2--2----|--0-0--0-0--0-----2-2--2-2--2----|


  Gtr II
   E    E    E  E  E    E    E  E    E    E    E  E  E    E    Q
E|-17---16------17-16--------16-17-|-17---16------17-16--------19b21r==|
B|-----------17---------17---------|-----------17---------17-----------|
G|---------------------------------|-----------------------------------|
D|---------------------------------|-----------------------------------|
A|---------------------------------|-----------------------------------|
E|---------------------------------|-----------------------------------|
|
| Gtr I
|  S S  S S  Q     S S  S S  Q       S S  S S  Q     S S  S S  Q
E|---------------------------------|-----------------------------------|
B|------------7---------------5----|------------3---------------5------|
G|------------6---------------4----|------------2---------------4------|
D|--4-4--4-4--4-----2-2--2-2--2----|--0-0--0-0--0-----2-2--2-2--2------|
A|--4-4--4-4--4-----2-2--2-2--2----|--0-0--0-0--0-----2-2--2-2--2------|
E|--4-4--4-4--4-----2-2--2-2--2----|--0-0--0-0--0-----2-2--2-2--2------|

  H    +Q   S S S S   S S Q.   H
E|-------------------|---------------|
B|-------------------|---------------|
G|-7----(7)--7---6---|-7---6----1----|
D|-------------------|---------------|
A|-------------------|---------------|
E|-------------------|---------------|


    Gtr II
     E.      E.    S  S  E.      E    E  S
||-----------------------------------------|
||o----------------------------------------|
||--11------13----11h13-14-----------14----|
||------------------------------14------14-|
||o----------------------------------------|
||-----------------------------------------|
|
|   Gtr I
|    S  S S  S  Q        S  S S  S Q
||-----------------------------------------|
||o-------------7------------------5-------|
||--------------6------------------4-------|
||---4--4-4--4--4--------2--2-2--2-2-------|
||o--4--4-4--4--4--------2--2-2--2-2-------|
||---4--4-4--4--4--------2--2-2--2-2-------|


   E.      E    E  S  E    S  S  E  S  S
E|-----------------------------------------| |
B|-12-----------12----12S==14-14-14S17-17-o| |
G|---------11------11----------------------| |
D|-----------------------------------------| |
A|----------------------------------------o| |
E|-----------------------------------------| |
|
|  S  S S  S Q        S S  S  S  Q
E|-----------------------------------------| |
B|------------3-------------------5-------o| |
G|------------2-------------------4--------| |
D|--0--0-0--0-0--------2-2--2--2--2--------| |
A|--0--0-0--0-0--------2-2--2--2--2-------o| |
E|--0--0-0--0-0--------2-2--2--2--2--------| |


  Gtr VI
   H                   H
E|----------------------------------------|
B|----------------------------------------|
G|-11------------------14-----------------|
D|----------------------------------------|
A|----------------------------------------|
E|----------------------------------------|
|
| Gtr II
|  E.      E.    S  S  E.      E    E  S
E|----------------------------------------|
B|----------------------------------------|
G|-11------13----11h13-14-----------14----|
D|-----------------------------14------14-|
A|----------------------------------------|
E|----------------------------------------|
|
| Gtr I
|  S  S S  S  Q        S  S S  S Q
E|----------------------------------------|
B|-------------7------------------5-------|
G|-------------6------------------4-------|
D|--4--4-4--4--4--------2--2-2--2-2-------|
A|--4--4-4--4--4--------2--2-2--2-2-------|
E|--4--4-4--4--4--------2--2-2--2-2-------|

   H                  H
E|----------------------------------------|
B|-12-----------------14------------------|
G|----------------------------------------|
D|----------------------------------------|
A|----------------------------------------|
E|----------------------------------------|
|
|  E.      E    E  S  E    S  S  E  S  S
E|----------------------------------------|
B|-12-----------12----12S==14-14-14S17-17-|
G|---------11------11---------------------|
D|----------------------------------------|
A|----------------------------------------|
E|----------------------------------------|
|
|  S  S S  S Q        S S  S  S  Q
E|----------------------------------------|
B|------------3-------------------5-------|
G|------------2-------------------4-------|
D|--0--0-0--0-0--------2-2--2--2--2-------|
A|--0--0-0--0-0--------2-2--2--2--2-------|
E|--0--0-0--0-0--------2-2--2--2--2-------|


  Gtr VI
   H                   H                    H                  Q          Q
E|----------------------------------------|-------------------------------------|
B|----------------------------------------|-12-----------------14---------------|
G|-11------------------14-----------------|-------------------------------------|
D|----------------------------------------|-------------------------------------|
A|----------------------------------------|-------------------------------------|
E|----------------------------------------|-------------------------------------|
|
| Gtr II
|  E.      E.    S  S  E.      E    E  S    E.      E    E  S  E    S  S  S E.
E|----------------------------------------|-------------------------------------|
B|----------------------------------------|-12-----------12----12S==14-14-14----|
G|-11------13----11h13-14-----------14----|---------11------11------------------|
D|-----------------------------14------14-|-------------------------------------|
A|----------------------------------------|-------------------------------------|
E|----------------------------------------|-------------------------------------|
|
| Gtr I
|  S  S S  S  Q        S  S S  S Q          S  S S  S Q        S S  S  S  S E.
E|----------------------------------------|-------------------------------------|
B|-------------7------------------5-------|------------3-------------------5----|
G|-------------6------------------4-------|------------2-------------------4----|
D|--4--4-4--4--4--------2--2-2--2-2-------|--0--0-0--0-0--------2-2--2--2--2----|
A|--4--4-4--4--4--------2--2-2--2-2-------|--0--0-0--0-0--------2-2--2--2--2----|
E|--4--4-4--4--4--------2--2-2--2-2-------|--0--0-0--0-0--------2-2--2--2--2----|


  Gtr I
  W          +W           +W           +W
E|----------|------------|------------|--------|
B|----------|------------|------------|--------|
G|----------|------------|------------|--------|
D|-4--------|-(4)--------|-(4)--------|-(4)----|
A|-4--------|-(4)--------|-(4)--------|-(4)----|
E|-4--------|-(4)--------|-(4)--------|-(4)----|


  Q=50
  W          +W           +W           +W
E|----------|------------|------------|--------*|
B|----------|------------|------------|--------*|
G|----------|------------|------------|--------*|
D|-4--------|-(4)--------|-(4)--------|-(4)----*|
A|-4--------|-(4)--------|-(4)--------|-(4)----*|
E|-4--------|-(4)--------|-(4)--------|-(4)----*|
00:00 / 00:00
Outros vídeos desta música
Repetir
Outros vídeos desta música
32 exibições
    • ½ Tom
    • A
    • Bb
    • B
    • C
    • Db
    • D
    • Eb
    • E
    • F
    • F#
    • G
    • Ab
  • Adicionar à lista

Afinação da cifra

Afinador online

    0 comentários

    Ver todos os comentários

    Entre para o Cifra Club PRO

    Tenha acesso a benefícios exclusivos no App e no Site

    • Chega de anúncios

    • Mais recursos no app do Afinador

    • Atendimento Prioritário

    • Aumente seu limite de lista

    • Ajude a produzir mais conteúdo

    00:00 / 00:00

    Cifra Club Pro

    Aproveite o Cifra Club com benefícios exclusivos e sem anúncios
    Cifra Club Pro
    Aproveite o Cifra Club com benefícios exclusivos e sem anúncios
    OK