Cifra Club

Love is a Bitch

Dover

Cifra: Principal (violão e guitarra)
Selo Cifra Club: esta cifra foi revisada para atender aos critérios oficiais da nossa Equipe de Qualidade.
tom: G
Intro:
e|----------------------------|
B|----------------------------|
G|----------------------------|
D|--7-7-7---------------------|
A|--5-5-5-7/9-9--5-5-5/7-9-9--|
E|--------5/7-7--3-3-3/5-7-7--|
 
e|---------------------------------------|
B|---------------------------------------|
G|---------------------6--6--6--6--6--6--|
D|--4--4--4--4--4--4---6--6--6--6--6--6--|
A|--4--4--4--4--4--4---4--4--4--4--4--4--|
E|--2--2--2--2--2--2---------------------|
They just took my money
i want it, i need it
but it's all right!
don't you pull the trigger
i'm waiting for someone
and it's all right!

e|--------------------------|
B|--------------------------|
G|--------------------------|
D|--6-----------------------|
A|--4-6-6-6-6-6--4/6-6-8-8--|
E|----4-4-4-4-4--2/4-4-6-6--|
It's all right!, it's all money!

e|---------------------------------------|
B|---------------------------------------|
G|---------------------6--6--6--6--6--6--|
D|--4--4--4--4--4--4---6--6--6--6--6--6--|
A|--4--4--4--4--4--4---4--4--4--4--4--4--|
E|--2--2--2--2--2--2---------------------|
Do you know what i'm saying?
I'm talking! do you hear me?
Well, it's all right
Give me what you owe me
I don't owe you nothing
But it's all right!

e|----------------------------|
B|----------------------------|
G|----------------------------|
D|--7------------------5/7-7--|
A|--5-7-7-7/9-9--5-5-5-3/5-5--|
E|----5-5-5/7-7--3-3-3--------|
Lets keep some distance
Hey! you're not a man
Don't you dare to touch me
You're making me insane
If I would have known
Love is a bitch! (you're driving me crazy)

Solo I
e|-----------------------------|
B|--6p-6p---6-6p-6p------------|
G|--------6---------6-3--3-5-6-| x4
D|-----------------------------|
A|-----------------------------|
E|-----------------------------|

Solo II
e|-----------------------------|
B|--6p-6p----------------------|
G|--------6-3--3-3-6-3---------| x4
D|-----------------------------|
A|-----------------------------|
E|-----------------------------|

e|--------------------------|
B|--------------------------|
G|--------------------------|
D|--6-----------------------|
A|--4-6-6-6-6-6--4/6-6-8-8--|
E|----4-4-4-4-4--2/4-4-6-6--|
It's all right!, it's all money!

e|---------------------------------------|
B|---------------------------------------|
G|---------------------6--6--6--6--6--6--|
D|--4--4--4--4--4--4---6--6--6--6--6--6--|
A|--4--4--4--4--4--4---4--4--4--4--4--4--|
E|--2--2--2--2--2--2---------------------|
They just took my money
I want it, i need it
But it's all right!
Don't you pull the trigger
I'm waiting for someone
And it's all right!

e|----------------------------|
B|----------------------------|
G|----------------------------|
D|--7------------------5/7-7--|
A|--5-7-7-7/9-9--5-5-5-3/5-5--|
E|----5-5-5/7-7--3-3-3--------|
Lets keep some distance
Hey! you're not a man
Don't you dare to touch me
You're making me insane
If I would have known
Love is a bitch! (you're driving me crazy)

e|-------------------------|
B|-------------------------|
G|-------------------------|
D|-------------------------|
A|-7-7--7-7-7--7-7-7--7-7--|
E|-5-5--5-5-5--5-5-5--5-5--|
Outros vídeos desta música
1.378 exibições
    • ½ Tom
    • A
    • Bb
    • B
    • C
    • Db
    • D
    • Eb
    • E
    • F
    • F#
    • G
    • Ab
  • Adicionar à lista

Afinação da cifra

Afinador online

    0 comentários

    Ver todos os comentários

    Entre para o Cifra Club PRO

    Tenha acesso a benefícios exclusivos no App e no Site

    • Chega de anúncios

    • Mais recursos no app do Afinador

    • Atendimento Prioritário

    • Aumente seu limite de lista

    • Ajude a produzir mais conteúdo

    Cifra Club Pro

    Aproveite o Cifra Club com benefícios exclusivos e sem anúncios
    Cifra Club Pro
    Aproveite o Cifra Club com benefícios exclusivos e sem anúncios
    OK