Cifra Club

Aprenda

Zero

Dr. Sin

Tab de baixo: Principal
Intro / Refrão:

G|----------------9-----------------------------------------------------|
D|-----9--11--12--------------------------------------------------------|
A|--9----------------10--10-10-10--10\--5---5-5--5--5h7-----------------|
E|-------------------------------------------------------5--5-5--5--5h7-|

G|-------------------------------------------------------|
D|-------------------------------------------------------|
A|-5--5-5--5--7\------------------5--5-5--5--7---0-------|
E|-----------------3--3-3--3--3/-------------------------|

Verso:
G|------------------------------------------------------------------------------------------------------------|
D|----------------------------------------------------5-4-----------------------------------------------------|
A|-5--5-5-5--5-5-5--5-5-5--5-5-3h5--5-5-5--5-5-5--5-5-----7-5----5-5-5--5-5-5--5-5-5--5---3---3---3---2---3---|
E|------------------------------------------------------------------------------------------------------------|

G|------------------------------------------------------------------------------------|
D|----------------------------------------------------5-4-----------------------------|
A|-5--5-5-5--5-5-5--5-5-5--5-5-3h5--5-5-5--5-5-5--5-5-----7-5----5-5-5--5-5-5--5-5-5--|
E|------------------------------------------------------------------------------------|

G|---------------------------------|
D|---------------------------------|
A|-3-3-3--2-2-2--0-0-0----------0--|
E|----------------------4-4--4-----|

G|-----------------------------------------------------------------------------|
D|-----------------------------------------------------------------------------|
A|-3----3----------------------------------------------------------------------|
E|-----------3------3---x--3--x--x---1/3---3--x--x--1/3----3--x--x--1/3--x--x--|

G|--------------------------------------------------------------------------|
D|--------------------------------------------------------------------------|
A|-3----3-------------------------------------------------------------------|
E|-----------3------3-------x--x---1/3---3--x--x--1/3------x--x--1/3--x--x--|

G|-----------------12p11-9/11-|
D|----------------------------|
A|--0-------------------------|
E|----------------------------|

Segunda Parte:
G|---------------------------------|---------------------------------|
D|---------------------------------|---------------------------------|
A|-5-5-5-5-5-5-5-5-5-5-5-5-5-5-5-5-|-5-5-5-5-5-5-5-5-5-5-5-5-5-5-5-5-|
E|---------------------------------|---------------------------------|

G|---11-12---9-11------9---------------------------------------------------------|
D|-0-------0------0-12---0-10-12-0-9-10-0-7-9-0-9/10\9--0--9-7----7---7-6-7--7---|
A|-------------------------------------------------------------------------------|
E|-------------------------------------------------------------------------------|

G|---------------------------------|---------------------------------|
D|---------------------------------|---------------------------------|
A|-5-5-5-5-5-5-5-5-5-5-5-5-5-5-5-5-|-5-5-5-5-5-5-5-5-5-5-5-5-5-5-5-5-|
E|---------------------------------|---------------------------------|

G|---11-12---12-14---14-16---16-17---17-19---16-17---14-16---12-14---11h12p11p9--11------9/--11-----|
D|-0-------0-------0-------0-------0-------0-------0-------0-------0-----------------12-------------|
A|--------------------------------------------------------------------------------------------------|
E|--------------------------------------------------------------------------------------------------|

Solo:
G|--------------2--------4--------------7-----------------------2--------4------------------------|
D|-----2--4--5--------5-----5-----4--5-----------------2--4--5--------5-----5-----5--4------------|
A|--2--------------3-----------5--------------------2--------------3-----------5--------5--7------|
E|------------------------------------------0-----------------------------------------------------|

Solo:
G|----------------9--------14/16--14---------14------------------------------------14--14--16--|
D|-----9--11--12-----------12/14--12--14/16------14/16\14-12--12h14-----12--14/16--------------|
A|--9----------------10------------------------------------------------------------------------|
E|---------------------------------------------------------------------------------------------|

G|---------------------------14-14----------------------|
D|-16\14--12--12--14--14/16--------14/16\14-12----------|
A|----------------------------------------------12------|
E|------------------------------------------------------|

Solo:
G|--------------2-----------------------------------------------------2-------------------------------------|
D|-----2--4--5-----------------------------------------------2--4--5----------------------------------------|
A|--2--------------3--3-3--3--3---5--5-5--5--5------------2--------------3--3-3--3--3---5--5-5--5--5--------|
E|-----------------------------------------------0----0------------------------------------------------0----|
Colaboração e revisão:
  • Diego Torres
495 exibições

0 comentários

Mostrar mais comentários

Conseguiu tocar?

0 Tocaram 0 Ainda não

Grave um vídeo tocando Zero e mande pra gente!

00:00 / 00:00
outros vídeos desta música
repetir qualidade Automático
Outros vídeos desta música
00:00 / 00:00
Automático

Cifra Club Pro

Aproveite o Cifra Club com benefícios exclusivos e sem anúncios
7 dias grátis
Cifra Club Pro
Aproveite o Cifra Club com benefícios exclusivos e sem anúncios
7 dias grátis
OK