Cifra Club

Abertura Completa

Dragon Ball

Cifra: Principal (violão e guitarra)
tom: F
Intro:
C                   G           Am                Em           F
Seu sorriso é tão resplandecente, que deixou meu coração alegre
         Em Am       Dm           G           Bb (riff)
Me dê a mão , prá fugir desta terrivel escuridão

Primeira Parte:
Fm                 Bb            Gm
Desde o dia em que eu te reencontrei,
              Cm            Fm
Me lembrei daquele lindo lugar,
                Gm           Cm
Que na minha infância era especial para mim

Segunda Parte:
    Fm             Bb              Gm
Quero saber se comigo você quer vir dançar,
             Cm            Fm
Se me der a mão eu te levarei,
          Gm             Cm
Por um caminho cheio de sombras e de luz.

Terceira Parte:
     G#
Você pode até não perceber,
              Gm
Mas o meu coração se amarrou em você,
            Cm         F
Que precisa de alguém pra te mostrar
    Bb                  Cm (Riff)
O amor que o mundo te dá.

Refrão:
C               G            Am               Em          F
Meu alegre coração palpita, por um universo de esperança.
         Em Am      Dm      E G
Me dê a mão, a magia nos espera.
C                      G
Vou te amar por toda a minha vida,
Am              Em            F
Vem comigo por este caminho.
         Em Am     Dm                 G      Bb
Me dê a mão, prá fugir desta terrivel escuridão.
Intro: (Riff + Complemento)

Riff:
E|-------------------|
B|-------------------|
G|-----0---0---0---0-|
D|-3-----3---2---0---|
A|-------------------|
E|-------------------|

Complemento:
E|-3-3-0-1-3-5-3-1-0---0-0-----0-1-0------------------5-3--------------------------|
B|-------------------3-----1-3-------3-1-0----------------3-5-6-5-3-1-1/3-1-1-0-1--|
G|-----------------------------------------2-2--2-2-5------------------------------|
D|---------------------------------------------------------------------------------|
A|---------------------------------------------------------------------------------|
E|---------------------------------------------------------------------------------|

Primeira Parte:
E|------------------------------------------------------------------|
B|-1-1-1-1-1-------1------------------------------------------------|
G|-----------3-1-3---3---3-3-3-3-3-1-0-1-3-1---1-1-1-1-1------------|
D|-------------------------------------------------------3-3-1-3/5--|
A|------------------------------------------------------------------|
E|------------------------------------------------------------------|

Segunda Parte:
E|---------------------------------------------------------3-1-1----------|
B|---------------------------------------------------------------4-4-3-4--|
G|-----3-5--5-5-5-5-5-3-1-3-5-3-3-3-5-7-8-3-1-0-1--3-3-1-0----------------|
D|-5-5--------------------------------------------------------------------|
A|------------------------------------------------------------------------|
E|------------------------------------------------------------------------|

Terceira Parte:
E|---------------------------------------------------------------------3-1--1-1---1-3--|
B|-1-3-4-4-1-4-4-1-4--4-6-4-3-1-1--------------------1-3-3-4-1-3-3-4-1----------4------|
G|--------------------------------3--0-3-3-0-3--3-3------------------------------------|
D|-------------------------------------------------------------------------------------|
A|-------------------------------------------------------------------------------------|
E|-------------------------------------------------------------------------------------|

(Intro 2x)

Variação:
E|-3-3-0-1-3-5-3-1-0---0-0-----0-1-0------------------5-3------------------------|
B|-------------------3-----1-3-------3-1-0----------------3-5-6-5-3-1-3/5-6-5-3--|
G|-----------------------------------------2-2--2-2-5----------------------------|
D|-------------------------------------------------------------------------------|
A|-------------------------------------------------------------------------------|
E|-------------------------------------------------------------------------------|
00:00 / 00:00
Outros vídeos desta música
Repetir
Outros vídeos desta música
Compositor não encontrado.
Colaboração e revisão:
  • Thiago
  • Gustavo
71.869 exibições
    • ½ Tom
    • A
    • Bb
    • B
    • C
    • Db
    • D
    • Eb
    • E
    • F
    • F#
    • G
    • Ab
  • Adicionar à lista

    0 comentários

    Ver todos os comentários

    Conseguiu tocar?

    19 Tocaram 0 Ainda não

    Grave um vídeo tocando Abertura Completa e nos envie!

    Entre para oCifra Club PRO

    Tenha acesso a benefícios exclusivos no App e no Site

    • Chega de anúncios

    • Prioridade de compra em lançamentos

    • Mais recursos no app do Afinador

    • Atendimento Prioritário

    • Descontos nos produtos Cifra Club

    • Ajude a produzir mais conteúdo

    00:00 / 00:00

    Cifra Club Pro

    Aproveite o Cifra Club com benefícios exclusivos e sem anúncios
    Cifra Club Pro
    Aproveite o Cifra Club com benefícios exclusivos e sem anúncios
    OK