Cifra Club

Dragon Ball Gt

Dragon Ball

Cifra: Principal (violão e guitarra)
tom: C
E|-3-3-0-1-3-5-3-1-0---0-0-----0-1-0------------5-3-0----------------------------|
B|-------------------3-----1-3-------3-1-0------------1-3-5-6-5-3-1-1/3---1-0-1--|
G|------------------------------------------2-5----------------------------------|
D|-------------------------------------------------------------------------------|
A|-------------------------------------------------------------------------------|
E|-------------------------------------------------------------------------------|

E|----------------------------------------------------------------------|
B|-1-1-1-1-1-------1----------------------------------------------------|
G|-----------3-1-3---3---3-3-3-3-3-1-0-1-3-1---1-1-1-1-1-0--------------|
D|---------------------------------------------------------1-3-3-1-3/5--|
A|----------------------------------------------------------------------|
E|----------------------------------------------------------------------|

E|----------------------------------------------------------3-3-1-1----------|
B|-----------------------------------------------------------------4-4-3-4---|
G|-----3-5--5-5-5-5-5-3-1-3-5-3--3-3-5-7-8-3-1-0-1--3-3-1-0------------------|
D|-5-5-----------------------------------------------------------------------|
A|---------------------------------------------------------------------------|
E|---------------------------------------------------------------------------|

E|---------------------------------------------------------------------3-1--1-1---1-3--|
B|-1-3-4-4-1-4-4-1-4--4-6-4-3-1-1--------------------1-3-3-4-1-3-3-4-1----------4------|
G|--------------------------------3--0-3-3-0-3--3-3------------------------------------|
D|-------------------------------------------------------------------------------------|
A|-------------------------------------------------------------------------------------|
E|-------------------------------------------------------------------------------------|

E|-3-3-0-1-3-5-3-1-0---0-0-----0-1-0------------5-3-0---------------------------|
B|-----------------3-----1-3-------3-1-0------------1-3-5-6-5-3-1-3/5-3-------|
G|----------------------------------------2-5---------------------------------|
D|----------------------------------------------------------------------------|
A|----------------------------------------------------------------------------|
E|----------------------------------------------------------------------------|

E|-3-3-0-1-3-5-3-1-0---0-0-----0-1-0-----------5-3-0----------------------------|
B|-------------------3-----1-3-------3-1-0-----------1-3-5-6-5-3-1-1/3---1-0-1--|
G|-----------------------------------------2-5----------------------------------|
D|------------------------------------------------------------------------------|
A|------------------------------------------------------------------------------|
E|------------------------------------------------------------------------------|

00:00 / 00:00
Outros vídeos desta música
Repetir
Outros vídeos desta música
Composição de Gustavo Andriewiski
Colaboração e revisão:
  • Luis Souza
  • Gustavo Henrique
  • Luan Perdomo
46.244 exibições
    • ½ Tom
    • A
    • Bb
    • B
    • C
    • Db
    • D
    • Eb
    • E
    • F
    • F#
    • G
    • Ab
  • Adicionar à lista

    0 comentários

    Ver todos os comentários

    Conseguiu tocar?

    14 Tocaram 0 Ainda não

    Grave um vídeo tocando Dragon Ball Gt e nos envie!

    Entre para oCifra Club PRO

    Tenha acesso a benefícios exclusivos no App e no Site

    • Chega de anúncios

    • Prioridade de compra em lançamentos

    • Mais recursos no app do Afinador

    • Atendimento Prioritário

    • Descontos nos produtos Cifra Club

    • Ajude a produzir mais conteúdo

    00:00 / 00:00

    Cifra Club Pro

    Aproveite o Cifra Club com benefícios exclusivos e sem anúncios
    Cifra Club Pro
    Aproveite o Cifra Club com benefícios exclusivos e sem anúncios
    OK