Cifra Club

Through The Fire And Flames

DragonForce

Tab de baixo: Principal
Selo Cifra Club: esta cifra foi revisada para atender aos critérios oficiais da nossa Equipe de Qualidade.
tom: Afinação:
[Introdução]

G|----------------------------------------------|
D|----------------------------------------------|
A|--3---3---------------3---3-------------------|
E|----------6---4---3-----------4---3---3-3-3---|

G|----------------------------------------------|
D|----------------------------------------------|
A|--3-3-3-3--3-3-3-3--3-3-3-3--3-3-3-3----------|
E|----------------------------------------------|

G|----------------------------------------------|
D|----------------------------------------------|
A|----------------------------------------------|
E|--4-4-4-4--4-4-4-4--4-4-4-4--4-4-4-4----------|

G|----------------------------------------------|
D|----------------------------------------------|
A|----------------------------------------------|
E|--1-1-1-1--1-1-1-1--1-1-1-1--1-1-1-1----------|

G|----------------------------------------------|
D|--6-6-6-6-5-5-5-5--6-6-6-6-8-8-8-8------------|
A|----------------------------------------------|
E|----------------------------------------------|

G|----------------------------------------------|
D|--6-5-----------------------------------------|
A|------8-6--8-6-5-3----------------------------|
E|----------------------------------------------|

G|----------------------------------------------|
D|----------------------------------------------|
A|--3-3-3-3--3-3-3-3--3-3-3-3--3-3-3-3----------|
E|----------------------------------------------|

G|----------------------------------------------|
D|----------------------------------------------|
A|----------------------------------------------|
E|--4-4-4-4--4-4-4-4--4-4-4-4--4-4-4-4----------|

G|----------------------------------------------|
D|----------------------------------------------|
A|----------------------------------------------|
E|--1-1-1-1--1-1-1-1--1-1-1-1--1-1-1-1----------|

G|----------------------------------------------|
D|--6-6-6-6-8-8-8-8--5-5-5-5-6-6-6-6------------|
A|----------------------------------------------|
E|----------------------------------------------|

G|--7-5-4----4----------------------------------|
D|--------7----7-4-5----------------------------|
A|----------------------------------------------|
E|----------------------------------------------|

[Primeira Parte]

G|----------------------------------------------|
D|----------------------------------------------|
A|--3-------------------3-----------------------|
E|------4---6---6-6-6-6-------------------------|

G|----------------------------------------------|
D|----------------------------------------------|
A|--3-3-3-3--3-3-3-3--3-3-3-3--3-3-3-3----------|
E|----------------------------------------------|

G|----------------------------------------------|
D|----------------------------------------------|
A|----------------------------------------------|
E|--4-4-4-4--4-4-4-4--4-4-4-4--4-4-4-4----------|

G|----------------------------------------------|
D|----------------------------------------------|
A|----------------------------------------------|
E|--6-6-6-6--6-6-6-6--6-6-6-6--6-6-6-6----------|

G|----------------------------------------------|
D|----------------------------------------------|
A|--3-3-3-3--3-3-3-3--3-3-3-3--3-3-3-3----------|
E|----------------------------------------------|

G|----------------------------------------------|
D|----------------------------------------------|
A|--3-3-3-3--3-3-3-3--3-3-3-3--3-3-3-3----------|
E|----------------------------------------------|

G|----------------------------------------------|
D|----------------------------------------------|
A|----------------------------------------------|
E|--4-4-4-4--4-4-4-4--4-4-4-4--4-4-4-4----------|

G|----------------------------------------------|
D|----------------------------------------------|
A|----------------------------------------------|
E|--6-6-6-6--6-6-6-6--6-6-6-6--6-6-6-6----------|

G|----------------------------------------------|
D|----------------------------------------------|
A|--3-3-3-3--3-3-3-3--3-3---3---3---3-----------|
E|----------------------------------------------|

[Segunda Parte]

G|----------------------------------------------|
D|----------------------------------------------|
A|----------------------------------------------|
E|--1-1-1-1-1-1-1-1--1-1-1-1-1-1-1-1------------|

G|----------------------------------------------|
D|----------------------------------------------|
A|----------------------------------------------|
E|--1-1-1-1-1-1-1-1--1-1-1-1-1-1-1-1------------|

G|----------------------------------------------|
D|----------------------------------------------|
A|--3-3-3-3-3-3-3-3--3-3-3-3-3-3-3-3------------|
E|----------------------------------------------|

G|----------------------------------------------|
D|----------------------------------------------|
A|--3-3-3-3-3-3-3-3--3-3-3-3-3-3-3-3------------|
E|----------------------------------------------|

G|----------------------------------------------|
D|----------------------------------------------|
A|----------------------------------------------|
E|--4-4-4-4-4-4-4-4--4-4-4-4-4-4-4-4------------|

G|----------------------------------------------|
D|----------------------------------------------|
A|----------------------------------------------|
E|--4-4-4-4-4-4-4-4--4-4-4-4-4-4-4-4------------|

G|----------------------------------------------|
D|----------------------------------------------|
A|--1-1-1-1--1-1-1-1--1-------------------------|
E|------------------------6---4---6-------------|

[Pre-Refrão]

G|----------------------------------------------|
D|----------------------------------------------|
A|--6-6-6-6--6-6-6-6----------------------------|
E|--------------------6-6-6-6--6-6-6-6----------|

G|----------------------------------------------|
D|----------------------------------------------|
A|----------------------------------------------|
E|--4-4-4-4--4-4-4-4--4-4-4-4--4-4-4-4----------|

G|----------------------------------------------|
D|----------------------------------------------|
A|--3-3-3-3--3-3-3-3----------------------------|
E|--------------------6-6-6-6--6-6-6-6----------|

G|-----------------------------5----------------|
D|--------------------6-5-6-8----8-6-5----------|
A|----------------------------------------------|
E|--4-4-4-4--4-4-4-4----------------------------|

G|----------------------------------------------|
D|----------------------------------------------|
A|--3-3-3-3--3-3-3-3----------------------------|
E|--------------------4-4-4-4--4-4-4-4----------|

G|----------------------------------------------|
D|----------------------------------------------|
A|--3-3-3-3--3-3-3-3--6-6-6-6--6-6-6-6----------|
E|----------------------------------------------|

G|----------------------------------------------|
D|----------------------------------------------|
A|----------------------------------------------|
E|--1-1-1-1-1-1-1-1--1-1-1-1-1-1-1-1------------|

G|----------------------------------------------|
D|----------------------------------------------|
A|----------------------------------------------|
E|--1-1-1-1-1-1-1-1--1-1-1-1-1-1-1-1------------|

G|-----------7---10-7---------------------------|
D|--8-8-8-8----8--------------------------------|
A|----------------------------------------------|
E|---------------------6------------------------|

[Refrão]

G|----------------------------------------------|
D|----------------------------------------------|
A|----------------------------------------------|
E|--4-4-4-4--4-4-4-4--4-4-4-4--4-4-4-4----------|

G|----------------------------------------------|
D|----------------------------------------------|
A|--3-3-3-3--3-3-3-3--3-3-3-3--3-3-3-3----------|
E|----------------------------------------------|

G|----------------------------------------------|
D|----------------------------------------------|
A|----------------------------------------------|
E|--6-6-6-6--6-6-6-6--6-6-6-6--6-6-6-6----------|

G|----------------------------------------------|
D|----------------------------------------------|
A|----------------------------------------------|
E|--3-3-3-3--3-3-3-3----------------------------|

G|----------------------------------------------|
D|--5-5-5-5-5-5-5-5--5-5-5-5-5-5-5-5------------|
A|----------------------------------------------|
E|----------------------------------------------|

G|----------------------------------------------|
D|----------------------------------------------|
A|----------------------------------------------|
E|--4-4-4-4--4-4-4-4--4-4-4-4--4-4-4-4----------|

G|----------------------------------------------|
D|----------------------------------------------|
A|--3-3-3-3--3-3-3-3--3-3-3-3--3-3-3-3----------|
E|----------------------------------------------|

G|----------------------------------------------|
D|----------------------------------------------|
A|----------------------------------------------|
E|--6-6-6-6--6-6-6-6--6-------------------------|

[Instrumental 1]

G|----------------------------------------------|
D|----------------------------------------------|
A|--3-3-3-3--3-3-3-3--3-3-3-3--3-3-3-3----------|
E|----------------------------------------------|

G|----------------------------------------------|
D|----------------------------------------------|
A|----------------------------------------------|
E|--4-4-4-4--4-4-4-4--6-6-6-6--6-6-6-6----------|

G|----------------------------------------------|
D|----------------------------------------------|
A|--3-3-3-3--3-3-3-3--3-3-3-3--3-3-3-3----------|
E|----------------------------------------------|

G|----------------------------------------------|
D|--6-6-6-6--6--6--6-6-6-6--6--6----------------|
A|----------------------------------------------|
E|----------------------------------------------|

G|--------------------------------8-10-8--------|
D|--8-10-12-10-8-10-12-10-8-10-12--------12-10--|
A|----------------------------------------------|
E|----------------------------------------------|

G|----------------------------------------------|
D|----------------------------------------------|
A|--3-3-3-3--3-3-3-3--3-3-3-3--3-3-3-3----------|
E|----------------------------------------------|

G|----------------------------------------------|
D|----------------------------------------------|
A|----------------------------------------------|
E|--4-4-4-4--4-4-4-4--6-6-6-6--6-6-6-6----------|

G|----------------------------------------------|
D|----------------------------------------------|
A|--3-3-3-3--3-3-3-3--3-3-3-3--3-3-3-3----------|
E|----------------------------------------------|

G|----------------------------------------------|
D|-----------------------------------3----------|
A|--------------------------------------3-------|
E|--4-4-4-4--4-4-4-4--4-4-6----4--3-------------|
[Terceira Parte]

G|----------------------------------------------|
D|----------------------------------------------|
A|--3-3-3-3--3-3-3-3--3-3-3-3--3-3-3-3----------|
E|----------------------------------------------|

G|----------------------------------------------|
D|----------------------------------------------|
A|----------------------------------------------|
E|--4-4-4-4--4-4-4-4--4-4-4-4--4-4-4-4----------|

G|----------------------------------------------|
D|----------------------------------------------|
A|--------------------------------------3---3---|
E|--6-6-6-6--6-6-6-6--6-6-6-6--6-6-6-6----------|

G|----------------------------------------------|
D|----------------------------------------------|
A|--3-3-3-3--3-3-3-3--3-3-3-3--3-3-3-3----------|
E|----------------------------------------------|

G|----------------------------------------------|
D|----------------------------------------------|
A|----------------------------------------------|
E|--4-4-4-4--4-4-4-4--4-4-4-4--4-4-4-4----------|

G|----------------------------------------------|
D|----------------------------------------------|
A|----------------------------------------------|
E|--6-6-6-6--6-6-6-6--6-6-6-6--6-6-6-6----------|

G|--------------------5-4-5-7--5-4-5-7----------|
D|----------------------------------------------|
A|--3-3-3-3--3-3-3-3----------------------------|
E|----------------------------------------------|

[Quarta Parte]

G|----------------------------------------------|
D|----------------------------------------------|
A|----------------------------------------------|
E|--1-1-1-1-1-1-1-1--1-1-1-1-1-1-1-1------------|

G|----------------------------------------------|
D|----------------------------------------------|
A|----------------------------------------------|
E|--1-1-1-1-1-1-1-1--1-1-1-1-1-1-1-1------------|

G|----------------------------------------------|
D|----------------------------------------------|
A|--3-3-3-3-3-3-3-3--3-3-3-3-3-3-3-3------------|
E|----------------------------------------------|

G|----------------------------------------------|
D|----------------------------------------------|
A|--3-3-3---2---1---0---------------------------|
E|----------------------------------------------|

G|----------------------------------------------|
D|----------------------------------------------|
A|----------------------------------------------|
E|--4-4-4-4-4-4-4-4--4-4-4-4-4-4-4-4------------|

G|----------------------------------------------|
D|----------------------------------------------|
A|----------------------------------------------|
E|--4-4-4-4-4-4-4-4--4-4-4-4-4-4-4-4------------|

G|----------------------------------------------|
D|----------------------------------------------|
A|--1-1-1-1--1-1-1-1--1-------------------------|
E|------------------------6---4---6-------------|

[Pre-Refrão]

G|----------------------------------------------|
D|----------------------------------------------|
A|--6-6-6-6--6-6-6-6----------------------------|
E|--------------------6-6-6-6--6-6-6-6----------|

G|----------------------------------------------|
D|----------------------------------------------|
A|----------------------------------------------|
E|--4-4-4-4--4-4-4-4--4-4-4-4--4-4-4-4----------|

G|----------------------------------------------|
D|----------------------------------------------|
A|--3-3-3-3--3-3-3-3----------------------------|
E|--------------------6-6-6-6--6-6-6-6----------|

G|----------------------------------------------|
D|----------------------------------------------|
A|----------------------------------------------|
E|--4-4-4-4--4-4-4-4--4-4-4-4--4-4-4-4----------|

G|----------------------------------------------|
D|----------------------------------------------|
A|--3-3-3-3--3-3-3-3----------------------------|
E|--------------------4-4-4-4--4-4-4-4----------|

G|----------------------------------------------|
D|----------------------------------------------|
A|--3-3-3-3--3-3-3-3--6-6-6-6--6-6-6-6----------|
E|----------------------------------------------|

G|----------------------------------------------|
D|----------------------------------------------|
A|----------------------------------------------|
E|--1-1-1-1-1-1-1-1--1-1-1-1-1-1-1-1------------|

G|----------------------------------------------|
D|----------------------------------------------|
A|----------------------------------------------|
E|--1-1-1-1-1-1-1-1--1-1-1-1-1-1-1-1------------|

G|----------------------------------------------|
D|--8-8-8-8-7-7-8-8--8-8-8-8-7-7-8-8--8---------|
A|----------------------------------------------|
E|----------------------------------------------|

[Refrão]

G|----------------------------------------------|
D|----------------------------------------------|
A|----------------------------------------------|
E|--4-4-4-4--4-4-4-4--4-4-4-4--4-4-4-4----------|

G|----------------------------------------------|
D|----------------------------------------------|
A|--3-3-3-3--3-3-3-3--3-3-3-3--3-3-3-3----------|
E|----------------------------------------------|

G|----------------------------------------------|
D|----------------------------------------------|
A|----------------------------------------------|
E|--6-6-6-6--6-6-6-6--6-6-6-6--6-6-6-6----------|

G|-------------5---5--7-8-7-5----5-7-8----------|
D|--5---5-7--8---8-------------8----------------|
A|----8-----------------------------------------|
E|----------------------------------------------|

G|----------------------------------------------|
D|----------------------------------------------|
A|----------------------------------------------|
E|--4-4-4-4--4-4-4-4--4-4-4-4--4-4-4-4----------|

G|----------------------------------------------|
D|----------------------------------------------|
A|--3-3-3-3--3-3-3-3--3-3-3-3--3-3-3-3----------|
E|----------------------------------------------|

G|----------------------------------------------|
D|----------------------------------------------|
A|----------------------------------------------|
E|--6-6-6-6--6-6-6-6--6-------------------------|

[Instrumental 2]

G|----------------------------------------------|
D|----------------------------------------------|
A|--3-3-3-3--3-3-3-3--3-3-3-3--3-3-3-3----------|
E|----------------------------------------------|

G|----------------------------------------------|
D|----------------------------------------------|
A|----------------------------------------------|
E|--4-4-4-4--4-4-4-4--6-6-6-6--6-6-6-6----------|

G|----------------------------------------------|
D|----------------------------------------------|
A|--3-3-3-3--3-3-3-3--3-3-3-3--3-3-3-3----------|
E|----------------------------------------------|

G|----------------------------------------------|
D|----------------------------------------------|
A|----------------------------------------------|
E|--4-4-4-4--4-4-4-4----------------------------|

G|---------------15--15---------------15--15----|
D|----------------------------------------------|
A|--13-13-13-13----------13-13-13-13------------|
E|----------------------------------------------|

G|----------------------------------------------|
D|----------------------------------------------|
A|--3-3-3-3--3-3-3-3--3-3-3-3--3-3-3-3----------|
E|----------------------------------------------|

G|----------------------------------------------|
D|----------------------------------------------|
A|----------------------------------------------|
E|--4-4-4-4--4-4-4-4--6-6-6-6--6-6-6-6----------|

G|----------------------------------------------|
D|----------------------------------------------|
A|--3-3-3-3--3-3-3-3--3-3-3-3--3-3-3-3----------|
E|----------------------------------------------|

G|----------------------------------------------|
D|--6-6-6-6-8-8-8-8--5-5-5-5-6-6-6-6------------|
A|----------------------------------------------|
E|----------------------------------------------|

G|----------------------------------------------|
D|-----------------3----------------------------|
A|--------------------3-------------------------|
E|--4-4-6----4--3-------------------------------|

[Instrumental 3]

G|----------------------------------------------|
D|----------------------------------------------|
A|-1---3------1-3------1---3--------------------|
E|--------------------------------4-------------|

G|----------------------------------------------|
D|----------------------------------------------|
A|-----3------1---3------1-3--------------------|
E|-4------------------------------4-------------|

[Trecho 1] 2x

G|----------------------------------------------|
D|----------------------------------------------| 2x
A|--3---3-3-3-3-3-3--3-3-3-3-3-3-3-3------------|
E|----------------------------------------------|

G|----------------------------------------------|
D|----------------------------------------------|
A|----------------------------------------------|
E|--3---3-3-3-3-3-3--3-3-3-3-3-3-3-3------------|

G|----------------------------------------------|
D|----------------------------------------------|
A|----------------------------------------------|
E|--4---4-4-4-4-4-4--6---6-6-6-6-6-6------------|

[Trecho 2]

G|----------------------------------------------|
D|----------------------------------------------|
A|-------3---------3----------------------------|
E|--4---------6---------------------------------|

G|----------------------------------------------|
D|----------------------------------------------|
A|----------------------------------------------|
E|--4-4-4-4-4-4-4-4--4-4-4-4-4-4-4-4------------|

G|----------------------------------------------|
D|----------------------------------------------|
A|----------------------------------------------|
E|--6-6-6-6-6-6-6-6--6-6-6-6-6-6-6-6------------|

G|----------------------------------------------|
D|----------------------------------------------|
A|--3--------------3----------------------------|
E|-------4----6---------------------------------|

G|----------------------------------------------|
D|----------------------------------------------|
A|----------------------------------------------|
E|--3-3-3-3-3-3-3-3--3-3-3-3-3-3-3-3------------|

G|----------------------------------------------|
D|----------------------------------------------|
A|----------------------------------------------|
E|--4-4-4-4-4-4-4-4--6-6-6-6-6-6-6-6------------|

[Trecho 3] 2x

G|----------------------------------------------|
D|----------------------------------------------| 2x
A|--3---3-3-3-3-3-3--3-3-3-3-3-3-3-3------------|
E|----------------------------------------------|

G|----------------------------------------------|
D|----------------------------------------------|
A|----------------------------------------------|
E|--3---3-3-3-3-3-3--3-3-3-3-3-3-3-3------------|

G|----------------------------------------------|
D|----------------------------------------------|
A|----------------------------------------------|
E|--4---4-4-4-4-4-4--6---6-6-6-6-6-6------------|

[Trecho 4]

G|----------------------------------------------|
D|----------------------------------------------|
A|-------3---------3----------------------------|
E|--4---------6---------------------------------|

G|----------------------------------------------|
D|----------------------------------------------|
A|----------------------------------------------|
E|--4-4-4-4-4-4-4-4--4-4-4-4-4-4-4-4------------|

G|----------------------------------------------|
D|----------------------------------------------|
A|----------------------------------------------|
E|--6-6-6-6-6-6-6-6--6-6-6-6-6-6-6-6------------|

G|----------------------------------------------|
D|----------------------------------------------|
A|--3--------------3----------------------------|
E|-------4----6---------------------------------|

G|----------------------------------------------|
D|----------------------------------------------|
A|----------------------------------------------|
E|--3-3-3-3-3-3-3-3--3-3-3-3-3-3-3-3------------|

G|----------------------------------------------|
D|----------------------------------------------|
A|----------------------------------------------|
E|--4-4-4-4-4-4-4-4--6-6-6-6-6-6-6-6------------|

[Trecho 5]

G|----------------------------------------------|
D|----------------------------------------------|
A|--3---3---3-------3---3---3-------------------|
E|--------------4---------------4---3---3--3----|

[Solo 1]

G|----------------------------------------------|
D|----------------------------------------------|
A|--3-3-3-3--3-3-3-3--3-3-3-3--3-3-3-3----------|
E|----------------------------------------------|

G|----------------------------------------------|
D|----------------------------------------------|
A|----------------------------------------------|
E|--4-4-4-4--4-4-4-4--4-4-4-4--4-4-4-4----------|

G|----------------------------------------------|
D|----------------------------------------------|
A|----------------------------------------------|
E|--6-6-6-6--6-6-6-6--6-6-6-6--6-6-6-6----------|

G|----------------------------------------------|
D|----------------------------------------------|
A|--3-3-3-3--3-3-3-3--3-3-3-3--3-3-3-3----------|
E|----------------------------------------------|

G|----------------------------------------------|
D|----------------------------------------------|
A|--3-3-3-3--3-3-3-3--3-3-3-3--3-3-3-3----------|
E|----------------------------------------------|

G|----------------------------------------------|
D|----------------------------------------------|
A|----------------------------------------------|
E|--4-4-4-4--4-4-4-4--4-4-4-4--4-4-4-4----------|

G|----------------------------------------------|
D|----------------------------------------------|
A|----------------------------------------------|
E|--6-6-6-6--6-6-6-6--6-6-6-6--6-6-6-6----------|

G|----------------------------------------------|
D|----------------------------------------------|
A|--3-3-3-3--3-3-3-3--3-3-3-3--3-3-3-3----------|
E|----------------------------------------------|

[Solo 2]

G|----------------------------------------------|
D|----------------------------------------------|
A|----------------------------------------------|
E|--1-1-1-1-1-1-1-1--1-1-1-1-1-1-1-1------------|

G|----------------------------------------------|
D|----------------------------------------------|
A|----------------------------------------------|
E|--1-1-1-1-1-1-1-1--1-1-1-1-1-1-1-1------------|

G|----------------------------------------------|
D|----------------------------------------------|
A|--3-3-3------------3-3-3-3-3------------------|
E|----------------------------------------------|

G|----------------------------------------------|
D|----------------------------------------------|
A|----------------------------------------------|
E|--4-4-4-4-4-4-4-4--4-4-4-4-4-4-4-4------------|

G|----------------------------------------------|
D|----------------------------------------------|
A|----------------------------------------------|
E|--4-4-4-4-4-4-4-4--4-4-4-4-4-4-4-4------------|

G|----------------------------------------------|
D|----------------------------------------------|
A|----------------------------------------------|
E|--6-6--------------6-6-6-6-6------------------|

[Solo 3]

G|----------------------------------------------|
D|----------------------------------------------|
A|--6-6-6-6--6-6-6-6----------------------------|
E|--------------------6-6-6-6--6-6-6-6----------|

G|----------------------------------------------|
D|----------------------------------------------|
A|----------------------------------------------|
E|--4-4-4-4--4-4-4-4--4-4-4-4--4-4-4-4----------|

G|----------------------------------------------|
D|----------------------------------------------|
A|--3-3-3-3--3-3-3-3----------------------------|
E|--------------------6-6-6-6--6-6-6-6----------|

G|----------------------------------------------|
D|----------------------------------------------|
A|----------------------------------------------|
E|--4-4-4-4--4-4-4-4--4-4-4-4--4-4-4-4----------|

G|----------------------------------------------|
D|----------------------------------------------|
A|--3-3-3-3--3-3-3-3----------------------------|
E|--------------------4-4-4-4--4-4-4-4----------|

G|----------------------------------------------|
D|----------------------------------------------|
A|--3-3-3-3--3-3-3-3--6-6-6-6--6-6-6-6----------|
E|----------------------------------------------|

G|----------------------------------------------|
D|----------------------------------------------|
A|----------------------------------------------|
E|--1-1-1-1-1-1-1-1--1-1-1-1-1-1-1-1------------|

G|----------------------------------------------|
D|----------------------------------------------|
A|----------------------------------------------|
E|--1-1-1-1-1-1-1-1--1-1-1-1-1-1-1-1------------|

G|----------------------------------------------|
D|----------------------------------------------|
A|--3-3-3-3--3-3-3-3--1-1-1-1--1-1-1-1----------|
E|----------------------------------------------|

[Solo Dueto]

G|----------------------------------------------|
D|----------------------------------------------|
A|----------------------------------------------|
E|--4-4-4-4--4-4-4-4--4-4-4-4--4-4-4-4----------|

G|----------------------------------------------|
D|----------------------------------------------|
A|--3-3-3-3--3-3-3-3--3-3-3-3--3-3-3-3----------|
E|----------------------------------------------|

G|----------------------------------------------|
D|----------------------------------------------|
A|----------------------------------------------|
E|--6-6-6-6--6-6-6-6--6-6-6-6--6-6-6-6----------|

G|----------------------------------------------|
D|----------------------------------------------|
A|--3-3-3-3--3-3-3-3----------------------------|
E|--------------------4-4-4-4--6-6-6-6----------|

G|----------------------------------------------|
D|----------------------------------------------|
A|----------------------------------------------|
E|--4-4-4-4--4-4-4-4--4-4-4-4--4-4-4-4----------|

G|----------------------------------------------|
D|----------------------------------------------|
A|--3-3-3-3--3-3-3-3--3-3-3-3--3-3-3-3----------|
E|----------------------------------------------|

G|----------------------------------------------|
D|----------------------------------------------|
A|----------------------------------------------|
E|--6-6-6-6--6-6-6-6--6-6-6-6--6-6-6------------|

G|----------------------------------------------|
D|----------------------------------------------|
A|--3-3-3-3--3-3-3-3--3-3-3-3--3---3-3----------|
E|----------------------------------------------|

[Ponte]

G|----------------------------------------------|
D|-----------------------------5h6--5-----------|
A|--3------3/-11------11\--------------6--------|
E|------------------------6---------------------|

G|--------5-----5/7-5-------------5-7-----------|
D|--5-6-8-------------8-6-----6h8-----8-----8\--|
A|----------------------------------------------|
E|---------------------------------------------3|

[Refrão]

G|----------------------------------------------|
D|----------------------------------------------|
A|----------------------------------------------|
E|--4-4-4-4--4-4-4-4--4-4-4-4--4-4-4-4----------|

G|----------------------------------------------|
D|----------------------------------------------|
A|--3-3-3-3--3-3-3-3--3-3-3-3--3-3-3-3----------|
E|----------------------------------------------|

G|----------------------------------------------|
D|----------------------------------------------|
A|----------------------------------------------|
E|--6-6-6-6--6-6-6-6--6-6-6-6--6-6-6-6----------|

G|----------------------------------------------|
D|------7\-------7\-----------------------------|
A|--9\-------2/---------------------------------|
E|--------------------3-3-3-3--3-3-3-3----------|

G|----------------------------------------------|
D|----------------------------------------------|
A|----------------------------------------------|
E|--4-4-4-4--4-4-4-4--4-4-4-4--4-4-4-4----------|

G|----------------------------------------------|
D|----------------------------------------------|
A|--3-3-3-3--3-3-3-3--3-3-3-3--3-3-3-3----------|
E|----------------------------------------------|

G|----5-7-5–-7-8-7-5----------------------------|
D|--8-------------------------------------------|
A|----------------------------------------------|
E|--------------------6-------------------------|

[Final - Trecho 1]

G|----------------------------------------------|
D|----------------------------------------------|
A|--3-3-3-3--3-3-3-3--3-3-3-3--3-3-3-3----------|
E|----------------------------------------------|

G|----------------------------------------------|
D|----------------------------------------------|
A|----------------------------------------------|
E|--4-4-4-4--4-4-4-4--4-4-4-4--4-4-4-4----------|

G|----------------------------------------------|
D|----------------------------------------------|
A|----------------------------------------------|
E|--1-1-1-1--1-1-1-1--1-1-1-1--1-1-1-1----------|

G|--------------------8-7-5----5----------------|
D|--------------------------8----8-7-5----------|
A|----------------------------------------------|
E|--4-4-4-4--4-4-4-4----------------------------|

G|----------------------------------------------|
D|----------------------------------------------|
A|--3-3-3-3--3-3-3-3--3-3-3-3--3-3-3-3----------|
E|----------------------------------------------|

G|----------------------------------------------|
D|----------------------------------------------|
A|----------------------------------------------|
E|--4-4-4-4--4-4-4-4--4-4-4-4--4-4-4-4----------|

G|----------------------------------------------|
D|----------------------------------------------|
A|----------------------------------------------|
E|--1-1-1-1--1-1-1-1--1-1-1-1--1-1-1-1----------|

G|----------------------------------------------|
D|--5-5-5-5--5--5--5-5-5-5--5--5----------------|
A|----------------------------------------------|
E|----------------------------------------------|

G|--12/15--14--12--14--15--14h15p14p12----------|
D|----------------------------------------------|
A|----------------------------------------------|
E|----------------------------------------------|

[Final - Trecho 2]

G|----------------------------------------------|
D|----------------------------------------------|
A|----------------------------------------------|
E|--8-8-8-8---8---8---8---8-8-8-6---------------|

G|----------------------------------------------|
D|----------------------------------------------|
A|--6-6-6-6---6---6---6---6-6-6-6---------------|
E|----------------------------------------------|

G|----------------------------------------------|
D|----------------------------------------------|
A|--8-8-8-8---8---8---8---8-6-6-8---------------|
E|---------------------------------3------------|

G|----------------------------------------------|
D|--7-6-----6-----------------------------------|
A|------7-6---7-6-4------3-3-3-3-3---3--3--1--3\|
E|------------------3---------------------------|
Outros vídeos desta música
    11.246 exibições

    Afinação da cifra

    Afinador online

    0 comentários

    Ver todos os comentários

    Entre para o Cifra Club PRO

    Tenha acesso a benefícios exclusivos no App e no Site

    • Chega de anúncios

    • Badges exclusivas

    • Mais recursos no app do Afinador

    • Atendimento Prioritário

    • Aumente seu limite de lista

    • Ajude a produzir mais conteúdo

    Capítulos
    • Apresentação
    • Tocando a música
    • Encerramento

    Cifra Club Pro

    Aproveite o Cifra Club com benefícios exclusivos e sem anúncios
    Cifra Club Pro
    Aproveite o Cifra Club com benefícios exclusivos e sem anúncios
    OK