Cifra Club

Aprenda

As I Am

Dream Theater

Cifra: Principal (violão e guitarra)
tom: C
Afinação:  (C F Bb Eb G C)

Intro
  Q=98
                      
 4/4
  Gtr I
  W          Wx8            H     Q.   E   +W      4x
|----------|------------||---------------|---------||
|----------|------------||o-------5----5-|-(5)----o||
|----------|------------||--------4----3-|-(3)-----||
|----------|------------||--2-----2----2-|-(2)-----||
|----------|------------||o-2----(2)-----|--------o||
|----------|------------||--0----(0)-----|---------||


  N.C.
                  ~~~
  H    E E E E   +W           H    E E E E   +H.      +E.      +S
|--------------|------------|--------------|------------------------|
|--------------|------------|--------------|------------------------|
|--------------|------------|--------------|------------------------|
|--------------|------------|--------------|------------------------|
|------7---7---|------------|------7---7---|------------------------|
|-0------0---6-|-(6)--------|-0------0---6-|-(6)------(6)b7.5==(6)r-|

                                           Q=130
                  ~~~
  H    E E E E   +W           H    E E E E   +H.      +E.      +S
|--------------|------------|--------------|------------------------|
|--------------|------------|--------------|------------------------|
|--------------|------------|--------------|------------------------|
|--------------|------------|--------------|------------------------|
|------7---7---|------------|------7---7---|------------------------|
|-0------0---6-|-(6)--------|-0------0---6-|-(6)------(6)b7.5==(6)r-|
   
      PM--|   PM  ~~~~~~~~   ~~~~~~
    E E E E E E E E   +Q   E E +E  E Q   4x
||------------------|--------------------||-|
||o-----------------|-------------------o||-|
||------------------|--------------------||-|
||------------------|--------------------||-|
||o-2-------7---7---|------7-------7-5--o||-|
||--0-0-0-0---0---6-|-(6)----5-(5)---3---||-|

      PM--------------|       PM--------------|
    E E E E S S S S S S E   E E E E S S S S S S E
||------------------------|------------------------|
||o-----------------------|------------------------|
||------------------------|------------------------|
||------------------------|------------------------|
||o-2-------8-7-5-8-7-5-8-|-7-------8-7-5-8-7-5-7--|
||--0-0-0-0---------------|---0-0-0----------------|

|-----------------------|----------------------||---------------------|
|-----------------------|---------------------o||---------------------|
|-----------------------|----------------------||---------------------|
|-----------------------|----------------------||---------------------|
|---------8-7-5-8-7-5-8-|-7-----------5-----3-o||-7-----------5-----8-|
|-0-0-0-0---------------|---0-0-0-3-3-3-1-1-1--||---0-0-0-3-3-3-6-6-6-|

   Verse
    C5      N.C.              E5    N.C.            E5      N.C.
      PM--------------|       PM--------------|     PM----------------|
    E E E E S S S S S S E   E E E E S S S S S S E   E E E E S S S S S S E
||------------------------|-----------------------|------------------------|
||o-----------------------|-----------------------|------------------------|
||------------------------|-----------------------|------------------------|
||----------3-2-0-3-2-0-3-|-2-------3-2-0-3-2-0-2-|---------3-2-0-3-2-0-3--|
||o-2-2-2-2---------------|---2-2-2---------------|-2-2-2-2----------------|
||--0-0-0-0---------------|---0-0-0---------------|-0-0-0-0----------------|

    E5    G5    F5      E5      N.C.              E5    N.C.
    PM|   PM--------|     PM--------------|       PM--------------|
  E E E E S S E S S E   E E E E S S S S S S E   E E E E S S S S S S E
|---------------------|-----------------------|------------------------|
|---------------------|-----------------------|------------------------|
|---------------------|-----------------------|------------------------|
|-2-------------------|---------3-2-0-3-2-0-3-|-2-------3-2-0-3-2-0-2--|
|---2-2-2-----5-----3-|-2-2-2-2---------------|---2-2-2----------------|
|---0-0-0-3-3-3-1-1-1-|-0-0-0-0---------------|---0-0-0----------------|

                                                 Pre-Chorus
                                              $
  E5      N.C.              E5    G5    Bb5       N.C.(Bm)
                                                  Gtr II
  PM----------------|       PM|   PM------|
  E E E E S S S S S S E   E E E E S S E S S E     Q  H      Q
|-----------------------|----------------------||---------------|
|-----------------------|---------------------o||----0------0---|
|-----------------------|----------------------||---------------|
|---------3-2-0-3-2-0-3-|-2--------------------||---------------|
|-2-2-2-2---------------|---2-2-2-----5-----8-o||-2-------------|
|-0-0-0-0---------------|---0-0-0-3-3-3-6-6-6--||-------3-----2-|
                                                  H     Q.    E


                                         3/4             4/4
  +E  Q.    +E  Q.      +Q   H      Q     +E  E +Q   Q    +Q   H      Q
|---------------------|-----------------|---------------|------------------|
|-(0)-0-----(0)-0-----|-(0)--0------0---|-(0)-0-(0)--0--|-(0)--0------0----|
|---------------------|-----------------|---------------|------------------|
|---------------------|-----------------|---------------|------------------|
|---------0-(0)----3--|--2--------------|---------------|--2---------------|
|-(2)-----------------|---------3-----2-|-(2)----0------|---------3-----2--|
  +Q.     E +Q     Q     H      Q.    E   +Q     H         H      Q.    E


 5/4                       4/4
                                                                Gtrs I, II
  +E  Q.    +E  E +Q   Q    +Q   H      Q     +E  E +Q   H      Q  H      Q
|-------------------------|-----------------|-----------------|----------------|
|-(0)-0-----(0)-0-(0)--0--|-(0)--0------0---|-(0)-0-(0)--0----|----0------0----|
|-------------------------|-----------------|-----------------|----------------|
|-------------------------|-----------------|-----------------|----------------|
|---------0-(0)----3------|--2--------------|-----------------|-2--------------|
|-(2)---------------------|---------3-----2-|-(2)----0--------|-------3-----2--|
  +Q.     E +Q     H         H      Q.    E   +Q     H.         H     Q.    E


                                            3/4             4/4
  +E  Q.       +E  Q.      +Q   H      Q     +E  E +Q   Q    +Q   H      Q
|------------------------|-----------------|---------------|------------------|
|-(0)-0--------(0)-0-----|-(0)--0------0---|-(0)-0-(0)--0--|-(0)--0------0----|
|------------------------|-----------------|---------------|------------------|
|------------------------|-----------------|---------------|------------------|
|------------0-(0)----3--|--2--------------|---------------|--2---------------|
|-(2)----(2)-------------|---------3-----2-|-(2)----0------|---------3-----2--|
  +Q      E  E +Q     Q     H      Q.    E   +Q     H         H      Q.    E


 5/4                          4/4               6/4
  +E  Q.       +E  E +Q   Q    +Q   H      Q     +E  Q.     +W
|----------------------------|-----------------|-------------------|
|-(0)-0--------(0)-0-(0)--0--|-(0)--0------0---|-(0)-0------(0)----|
|----------------------------|-----------------|-------------------|
|----------------------------|-----------------|-------------------|
|------------0-(0)----3------|--2--------------|-------------------|
|-(2)----(2)-----------------|---------3-----2-|-(2)----2-1-(1)----|
  +Q      E  E +Q     H         H      Q.    E   +Q     E E +W


 Chorus
  $$
  E5         F#G5               F#5          F5        N.C.      A5 B5
 4/4              3/4          4/4
  Gtr I
           PM|                                               ~~~
  H    +E  E E E   +H     E E   H    +E  E E E   +E  E  E E  Q   E E
|----------------|------------|----------------|---------------------|
|----------------|------------|----------------|---------------------|
|----------------|------------|----------------|---------------------|
|-2----(2)-----5-|-(5)--------|-4----(4)-----3-|-(3)-------------2-4-|
|-2----(2)-2-4-5-|-(5)----2---|-4----(4)-2---3-|-(3)---/5-4-[3]--0-2-|
|-0----(0)-0-2-3-|-(3)------3-|-2----(2)---2-1-|-(1)-1---------------|

  E5         F#G5               F#5          F5        C5
                  3/4          4/4
           PM|
  H    +E  E E E   +H     E E   H    +E  E E E   E E E E E E E E
|----------------|------------|----------------|------------------|
|----------------|------------|----------------|------------------|
|----------------|------------|----------------|------------------|
|-2----(2)-----5-|-(5)--------|-4----(4)-----3-|---3---5---5---5--|
|-2----(2)-2-4-5-|-(5)----2---|-4----(4)-2---3-|---3---3---3---3--|
|-0----(0)-0-2-3-|-(3)------3-|-2----(2)---2-1-|---1--------------|

  E5             F#5 G                        F#sus4
  Q  E E +E   E   E  E   +Q   E E +E   E   E  E
|----------------------|------------------------|
|------0-(0)-(0)-(0)---|--------0-(0)-(0)-(0)---|
|----------------------|------------------------|
|-2--------------------|------------------------|
|-2---------------4--5-|-(5)-----------2---5--4-|
|-0--0--------0---2--3-|-(3)--3------------3--2-|

                       F5        N.C.      A5 B5
                                       ~~~
  +Q   E E +E   E   E  E   +E  E  E E  Q   E E
|------------------------|---------------------|
|--------0-(0)-(0)-(0)---|---------------------|
|------------------------|---------------------|
|------------------------|-----------------2-4-|
|-(4)-----------2---4--3-|-(3)---/5-4-[3]--0-2-|
|-(2)--2------------2--1-|-(1)-1---------------|


  E5             F#5 G                        F#sus4
  Q  E E +E   E   E  E   +Q   E E +E   E   E  E
|----------------------|------------------------|
|------0-(0)-(0)-(0)---|--------0-(0)-(0)-(0)---|
|----------------------|------------------------|
|-2--------------------|------------------------|
|-2---------------4--5-|-(5)-----------2---5--4-|
|-0--0--------0---2--3-|-(3)--3------------3--2-|


                                To Coda
                       F5        C5
                          3/4
  +Q   E E +E   E   E  E   E E E E E E
|------------------------|--------------||
|--------0-(0)-(0)-(0)---|--------------||
|------------------------|--------------||
|----------------------3-|---3---5---5--||
|-(4)-----------2---4--3-|---3---3---3--||
|-(2)--2------------2--1-|---1----------||


                                                              To Dbl. Coda
  E5     N.C.                     G5     E5      N.C.                     G5
 4/4
     PM|   PM  ~~~~~~~~   ~~~~~~           PM--|   PM  ~~~~~~~~   ~~~~~~
  Q  E E E E E E   +Q   E E +E  E Q      E E E E E E E E   +Q   E E +E  E Q   3x
|----------------|-------------------||------------------|--------------------||
|----------------|-------------------||o-----------------|-------------------o||
|----------------|-------------------||------------------|--------------------||
|-2--------------|-------------------||------------------|--------------------||
|-2------7---7---|------7-------7-5--||o-2-------7---7---|------7-------7-5--o||
|-0--0-0---0---6-|-(6)----5-(5)---3--||--0-0-0-0---0---6-|-(6)----5-(5)---3---||


   Verse
    E5      N.C.              E5    N.C.            E5      N.C.
      PM--------------|       PM--------------|     PM----------------|
    E E E E S S S S S S E   E E E E S S S S S S E   E E E E S S S S S S E
||------------------------|-----------------------|------------------------|
||o-----------------------|-----------------------|------------------------|
||------------------------|-----------------------|------------------------|
||----------3-2-0-3-2-0-3-|-2-------3-2-0-3-2-0-2-|---------3-2-0-3-2-0-3--|
||o-2-2-2-2---------------|---2-2-2---------------|-2-2-2-2----------------|
||--0-0-0-0---------------|---0-0-0---------------|-0-0-0-0----------------|


    E5    G5    F5      E5      N.C.              E5    N.C.
                                               7/8
    PM|   PM------|       PM--------------|       PM--------------|
  E E E E S S E S S E   E E E E S S S S S S E   E E E E S S S S S S
|---------------------|-----------------------|----------------------|
|---------------------|-----------------------|----------------------|
|---------------------|-----------------------|----------------------|
|-2-------------------|---------3-2-0-3-2-0-3-|-2-------3-2-0-3-2-0--|
|---2-2-2-----5-----3-|-2-2-2-2---------------|---2-2-2--------------|
|---0-0-0-3-3-3-1-1-1-|-0-0-0-0---------------|---0-0-0--------------|


                                D.S. al Coda
    E5    N.C.              E5    G5    Bb5
 4/4
    PM--------------|       PM|   PM------|
  E E E E S S S S S S E   E E E E S S E S S E
|-----------------------|----------------------||
|-----------------------|---------------------o||
|-----------------------|----------------------||
|-2-------3-2-0-3-2-0-3-|-2--------------------||
|---2-2-2---------------|---2-2-2-----5-----8-o||
|---0-0-0---------------|---0-0-0-3-3-3-6-6-6--||


     Interlude
  &
      E5        N.C.
 4/4
                ~~~~~~~~
      H..       E   +H.      E E
|-||--------------|--------------|
|-||o-------------|--------------|
|-||--------------|--------------|
|-||--2-----------|--------------|
|-||o-2-----------|--------------|
|-||--0---------6-|-(6)------0-1-|


                                     E5        N.C.
  ~~~~~~~~~      ~~~~~~~~~                     ~~~~~~~~
  H    +E   E E  E    +H.      E E   H..       E   +H.      E E
|-------------------|--------------|-------------|--------------|
|-------------------|--------------|-------------|--------------|
|-------------------|--------------|-------------|--------------|
|-------------------|--------------|-2-----------|--------------|
|----------/5-4-[3]-|-(3)----------|-2-----------|--------------|
|-2----(2)----------|----------2-3-|-0---------6-|-(6)------0-1-|


  1.                                       2.
                                                         C5
                                                            3/4
  ~~~~~~~~~     ~~~~~~~~          ~~~~~~~~~~~~~~~~~~
  H    +E   E E E   +Q.    E +E   Q.       H    +E   E E E   E E E E E E
|-----------------|---------------------||-----------------|--------------|
|-----------------|--------------------o||-----------------|--------------|
|-----------------|---------------------||-----------------|--------------|
|-----------------|--------------[5]----||---------------5-|---5---5---5--|
|----------/5-4-3-|-(3)---/6-(6)-------o||----------/5-4-3-|---3---3---3--|
|-2----(2)--------|---------------------||-2----(2)--------|--------------|


 Guitar Solo
  N.C.
 4/4
  Gtr III
    ~~~
    H     Q   +E        S  +S        +E   E  E  +E      +E   E  E  E
|---------------------------------|---------19-(19)b20r(19)-17----17-|
|----------------------20-(20)b22r|=(20)-17--------------------20----|
|--------17--(17)b17.5------------|----------------------------------|
|-/19-----------------------------|----------------------------------|
|---------------------------------|----------------------------------|
|---------------------------------|----------------------------------|

                        ~~~~~~~~
         |--3--|                 |--3--|  |------6-------|
   E     S  S  S  S     E.  +E   S  S  S  S  S  S  S  S  S
|-17b18-17-------20b22-20--(20)-17-19-17-------20-17-------|
|----------20-17-------------------------20-17-------20-17-|
|----------------------------------------------------------|
|----------------------------------------------------------|
|----------------------------------------------------------|
|----------------------------------------------------------|

                                                 ~~~~
   |------6-------|  |------6-------|  |--3--|
   S  S  S  S  S  S  S  S  S  S  S  S  S  S  S  +Q.
|-22-17-------20-17-------19-17-----------------------|
|-------20-17-------20-17-------20-17-----------------|
|-------------------------------------19-17-----------|
|-------------------------------------------19-(19)---|
|-----------------------------------------------------|
|-----------------------------------------------------|

   |------6-------|  |------6-------|  |------6-------|  |------6-------|
   S  S  S  S  S  S  S  S  S  S  S  S  S  S  S  S  S  S  S  S  S  S  S  S
|--------------------------------------------------------------------------|
|--------------------------------------------------------------------------|
|-------------------------------------19-18-17-----------------------------|
|----------------------------19-18-17----------19-18-17----------19-18-17--|
|----------17-16-15-19-18-17----------------------------19-18-17-----------|
|-17-16-15-----------------------------------------------------------------|

   |------6-------|  |------6-------|  |------6-------|  |------6-------|
   S  S  S  S  S  S  S  S  S  S  S  S  S  S  S  S  S  S  S  S  S  S  S  S
|----------------------------------------------------------------22-21-20-|
|-------------------22-21-20----------------------------22-21-20----------|
|----------21-20-19----------21-20-19----------21-20-19-------------------|
|-21-20-19----------------------------21-20-19----------------------------|
|-------------------------------------------------------------------------|
|-------------------------------------------------------------------------|

   |------6-------|  |------6-------|  |---------------13:8----------------|
   S  S  S  S  S  S  S  S  S  S  S  S  S  S  S  S  S  S  S  S  S  S  S  S  S
|-23-22-20-23-22-20-23-22-20-23-22-20-23-22-20-23-22-20-21-19-17----------20-|
|----------------------------------------------------------------20-19-17----|
|----------------------------------------------------------------------------|
|----------------------------------------------------------------------------|
|----------------------------------------------------------------------------|
|----------------------------------------------------------------------------|

   |---------------13:8----------------|  |---------------13:8----------------|
   S  S  S  S  S  S  S  S  S  S  S  S  S  S  S  S  S  S  S  S  S  S  S  S  S  S
|-19-17----------20-19-17----------20-19-17-------------------------------------|
|-------20-19-17----------20-19-17----------20-19-17-20-19-17-------------------|
|-------------------------------------------------------------20-19-17-20-17----|
|----------------------------------------------------------------------------19-|
|-------------------------------------------------------------------------------|
|-------------------------------------------------------------------------------|

   ~~~                                 ~~~~
                            |----3-----|
   Q.    +E     S  S  S  S  E  E      +E
|------------------------------------------|
|------------------------------------------|
|-17----(17)-----------17-19-21b24==(21)--|
|-----------------17-19--------------------|
|-------------/19--------------------------|
|------------------------------------------|

    ~~~~~~
                                   |-----3-----|
   +E      E  S  S  S  S  Q       +E   a  +E   E
|------------------20-22-24b27===(24)-24r(24)-23-|
|------------20-22-------------------------------|
|-(21)r-/21-------------------------------------|
|------------------------------------------------|
|------------------------------------------------|
|------------------------------------------------|

            ~~
   |--3--|                                         |-----5-----|
   E  E  E  Q   +S   T  T  T  T  T  T  T  T  T  T  T  T  T  T  T
|-22-20-22---------------------------------------------------------|
|----------22--(22)------------------------------------------------|
|----------------------------------------------19h21h24p21h24p21p==|
|-------------------19-19h22h24-24p22p19-19h22---------------------|
|------------------------------------------------------------------|
|------------------------------------------------------------------|


                                                             ~~
   S  S  S  T  T  S  T  T  T  T  T  T  T  T  T  T  T  T  S   Q
|---------------------------------------------------------------|
|---------------------------------------------------------------|
|-19----------------------------19h21h24-24p21p19---------------|
|----22p19-19h22h24-22p19-19h21-------------------22p19---------|
|-------------------------------------------------------19-----|
|-----------------------------------------------------------15--|

    |---------------13:8-----------------|  |------6-------|  |------6-------|
   +S   S  S  S  S  S  S  S  S  S  S  S  S  S  S  S  S  S  S  S  S  S  S  S  S
|------------------------------------------------------------------------------|
|------------------------------------------------------------------------------|
|------------------------------------------------------------------------------|
|---------------------------------------------14-14-16-16-14----14-16-16-14-16-|
|---------14-14-15-17-15----14-15-17-14-14-17----------------17----------------|
|-(15)-17----------------17----------------------------------------------------|

   |------6-------|  |------6-------|  |--------7--------|  |--------7--------|
   S  S  S  S  S  S  S  S  S  S  S  S  S  S  S  S  S  S  S  S  S  S  S  S  S  S
|-------------------------------------------------------------------------14-14-|
|-------------------------------------14-15-15-17-15-14-------15-15-14-17-------|
|----14-16-17-16-14----14-16-16-14-16-------------------17-17-------------------|
|-17----------------17----------------------------------------------------------|
|-------------------------------------------------------------------------------|
|-------------------------------------------------------------------------------|

   |--------7--------|  |--------7--------|  |--------7--------|  |------6-------|
   S  S  S  S  S  S  S  S  S  S  S  S  S  S  S  S  S  S  S  S  S  S  S  S  S  S  S
|-15-17-15-14----14-15-17-15-14-17-19-17-15----15-17-19-17-15-19-22-19-17-19-22-17-|
|-------------17----------------------------19-------------------------------------|
|----------------------------------------------------------------------------------|
|----------------------------------------------------------------------------------|
|----------------------------------------------------------------------------------|
|----------------------------------------------------------------------------------|

   |------6-------|  |------6-------|  |---------------13:8----------------|
   S  S  S  S  S  S  S  S  S  S  S  S  S  S  S  S  S  S  S  S  S  S  S  S  S
|-19-22-19-17-19-22-19-17-19-22-19-17-19-23-19-17-19-23-19-17-19-23-19-17-19-|
|----------------------------------------------------------------------------|
|----------------------------------------------------------------------------|
|----------------------------------------------------------------------------|
|----------------------------------------------------------------------------|
|----------------------------------------------------------------------------|

   |------6-------|  |------6-------|  |------6-------|  |------6-------|
   S  S  S  S  S  S  S  S  S  S  S  S  S  S  S  S  S  S  S  S  S  S  S  S
|-24-19-17-19-24-19-17-19-24-19-17-19-24-19-17-19-24-19-17-19-24-19-17-19-|
|-------------------------------------------------------------------------|
|-------------------------------------------------------------------------|
|-------------------------------------------------------------------------|
|-------------------------------------------------------------------------|
|-------------------------------------------------------------------------|

   |------6-------|  |------6-------|  |------6-------|  |------6-------|
   S  S  S  S  S  S  S  S  S  S  S  S  S  S  S  S  S  S  S  S  S  S  S  S
|-22-19-18-19-22-19-18-19-22-19-18-19-22-19-18-19-22-19-18-19-22-19-17S16S|
|-------------------------------------------------------------------------|
|-------------------------------------------------------------------------|
|-------------------------------------------------------------------------|
|-------------------------------------------------------------------------|
|-------------------------------------------------------------------------|

   |---------------13:8----------------|  |--------7--------|  |---------7---------|
   S  S  S  S  S  S  S  S  S  S  S  S  S  S  S  S  S  S  S  S  S  S  S   S  S  S   S
|-15----15-16-19-16-15----15-16-19-16-15----15-16-19-16-15----16-19-16-14-14-15-12---|
|----17----------------17----------------17----------------17--------------------------|
|--------------------------------------------------------------------------------------|
|--------------------------------------------------------------------------------------|
|--------------------------------------------------------------------------------------|
|--------------------------------------------------------------------------------------|

   |--------7--------|  |--------7--------|  |--------7--------|  |--------7---------|
   S  S  S  S  S  S  S  S  S  S  S  S  S  S  S  S  S  S  S  S  S  S  S  S  S  S  S  +S
|----12-14-15-14-12----12-14-15-12-----------------------------------------------------------|
|-15----------------15-------------15-15-13----12-14-15-14-12----14-15-14-12-----------------|
|-------------------------------------------15----------------12-------------15-12-(12)b12.5-|
|--------------------------------------------------------------------------------------------|
|--------------------------------------------------------------------------------------------|
|--------------------------------------------------------------------------------------------|


   ~~~~~~~~
   Q   +E.   S   S     +S   S  S  S  S  S  S
|--------------------------------------------|
|---------------14b15-(14)-14p12-------------|
|----------(12)-14b15-(14)-14p12-14p12-------|
|-14--(14)-(12)------------------------14-12-|
|--------------------------------------------|
|--------------------------------------------|

                                                     ~~
                          |--3--|  |------6-------|
   S     +S   S  S  E     S  S  S  S  S  S  S  S  S  Q
|------------12----------12-------17-15-----------------|
|---------------12-15b17----15p12-------17-15-----------|
|-14b16-(14)----------------------------------17-16-15--|
|-------------------------------------------------------|
|-------------------------------------------------------|
|-------------------------------------------------------|

   |------6-------|  |------6-------|  |------6-------|  |------6-------|
   S  S  S  S  S  S  S  S  S  S  S  S  S  S  S  S  S  S  S  S  S  S  S  S
|-15p14p12----12-14-15p14p12-17p15p14----14-15-17p15p14-19p17p15----15-17-|
|----------15-------------------------17-------------------------19-------|
|-------------------------------------------------------------------------|
|-------------------------------------------------------------------------|
|-------------------------------------------------------------------------|
|-------------------------------------------------------------------------|

  Gtr III
   |------6-------|  |------6-------|  |------6-------|  |------6-------|
   S  S  S  S  S  S  S  S  S  S  S  S  S  S  S  S  S  S  S  S  S  S  S  S
|-19p17p15-20p19p17----17-19-20p19p17-22p20p19----19-20-22p20p19----19-20-|
|-------------------20-------------------------22----------------22-------|
|-------------------------------------------------------------------------|
|-------------------------------------------------------------------------|
|-------------------------------------------------------------------------|
|-------------------------------------------------------------------------|
|
| Gtr I
|  W
|-------------------------------------------------------------------------|
|-------------------------------------------------------------------------|
|-------------------------------------------------------------------------|
|-------------------------------------------------------------------------|
|-------------------------------------------------------------------------|
|-------------------------------------------------------------------------|


  E5                     G6
 7/4
              ~~~~
   H         +Q    +Q       H.
|-22b24=====(22)--(22)r-----------|
|---------------------------------|
|---------------------------------|
|---------------------------------|
|---------------------------------|
|---------------------------------|
Composição de John Petrucci / Jordan Rudess / Mike Portnoy
Colaboração e revisão:
  • Pedro Souza
37.595 exibições
    • ½ Tom
    • A
    • Bb
    • B
    • C
    • Db
    • D
    • Eb
    • E
    • F
    • F#
    • G
    • Ab
  • Adicionar à lista

    0 comentários

    Ver todos os comentários
    00:00 / 00:00
    outros vídeos desta música
    repetir qualidade Automático
    Outros vídeos desta música
    00:00 / 00:00
    Automático

    Cifra Club Pro

    Aproveite o Cifra Club com benefícios exclusivos e sem anúncios
    Cifra Club Pro
    Aproveite o Cifra Club com benefícios exclusivos e sem anúncios
    OK