Cifra Club

Aprenda

Endless Sacrifice

Dream Theater

Cifra: Principal (violão e guitarra)
tom: G
Afinação em: D 

|---------------------------------|------------------------------------------|
|---------------------------------|------------------------------------------|
|---------0-----------0-----------|---------0-----------0--------------------|
|-----2-4---4-2-----2---2---2---4-|-----2-4---4-2-----2---2------0-----0-----|
|---2-----------0-3-------4---2---|---2-----------0-3----------2---2-----3-2-|
|-0-------------------------------|-0------------------------3-------2-------|

|-------------------------------------|--------------------------------------------------|
|-------------------------------------|--------------------------------------------------|
|---------0-----------0-----------0---|---------0-----------0----------------------------|
|-----2-4---4-2-----2---2-------4---4-|-----2-4---4-2-----2---2---------------7----------|
|---2-----------0-3-------3/-5--------|---2-----------0-3----------2-5-2----6----3-2-----|
|-0-----------------------------------|-0------------------------3--------7--------------|

|---------------------------------|------------------------------------------|
|---------------------------------|------------------------------------------|
|---------0-----------0-----------|---------0-----------0--------------------|
|-----2-4---4-2-----2---2---2---4-|-----2-4---4-2-----2---2------0-----0-----|
|---2-----------0-3-------4---2---|---2-----------0-3----------2---2-----3-2-|
|-0-------------------------------|-0------------------------3-------2-------|

|-------------------------------------|--------------------------------------------------|
|-------------------------------------|--------------------------------------------------|
|---------0-----------0-----------0---|---------0-----------0----------------------------|
|-----2-4---4-2-----2---2-------4---4-|-----2-4---4-2-----2---2---------------7----------|
|---2-----------0-3-------3/-5--------|---2-----------0-3----------2-5-2----6----3-2-----|
|-0-----------------------------------|-0------------------------3--------7--------------|

|---------------------------------|------------------------------------------|
|---------------------------------|------------------------------------------|
|---------0-----------0-----------|---------0-----------0--------------------|
|-----2-4---4-2-----2---2---2---4-|-----2-4---4-2-----2---2------0-----0-----|
|---2-----------0-3-------4---2---|---2-----------0-3----------2---2-----3-2-|
|-0-------------------------------|-0------------------------3-------2-------|

|-------------------------------------|--------------------------------------------------|
|-------------------------------------|--------------------------------------------------|
|---------0-----------0-----------0---|---------0-----------0----------------------------|
|-----2-4---4-2-----2---2-------4---4-|-----2-4---4-2-----2---2---------------7----------|
|---2-----------0-3-------3/-5--------|---2-----------0-3----------2-5-2----6----3-2-----|
|-0-----------------------------------|-0------------------------3--------7--------------|

|---------------------------------|------------------------------------------|
|---------------------------------|------------------------------------------|
|---------0-----------0-----------|---------0-----------0--------------------|
|-----2-4---4-2-----2---2---2---4-|-----2-4---4-2-----2---2------0-----0-----|
|---2-----------0-3-------4---2---|---2-----------0-3----------2---2-----3-2-|
|-0-------------------------------|-0------------------------3-------2-------|

|-------------------------------------|--------------------------------------------------|
|-------------------------------------|--------------------------------------------------|
|---------0-----------0-----------0---|---------0-----------0----------------------------|
|-----2-4---4-2-----2---2-------4---4-|-----2-4---4-2-----2---2---------------7----------|
|---2-----------0-3-------3/-5--------|---2-----------0-3----------2-5-2----6----3-2-----|
|-0-----------------------------------|-0------------------------3--------7--------------|

|----------------------------------|---------------------1p0----------------|
|-------0-1-0----------0-------0---|-------0-1-0-------------3--------5-----|
|-----2-------2------5---5---5---5-|-----2-------2-----2----------4------4--|
|---2-----------2--4-------3-------|---2-----------2-0----------2---2-------|
|-0--------------------------------|-0--------------------------------------|
|----------------------------------|----------------------------------------|

|-----------------------------------|------------------------------------------------------|
|-------0-1-0----------0------------|-------0-1-0------------------------------------------|
|-----2-------2------5---5-----0----|-----2-------2-------------------------0--------0-----|
|---2-----------2--4----------------|---2-----------2------0-------0------2---2----7---7---|
|-0--------------------------5---5--|-0------------------0---0---3---3--3--------5---------|
|--------------------------3--------|------------------2-------1---------------------------|

|-----------------------------------------------------|
|-----------------------------------------------------|
|----------------------4------------------------------|
|-------------------------------------4/-5/-4---------|
|-2-2-5/-7-2-2-5/-7-2----2-2-5/-7-2-2-2/-3/-2--4------|
|-0-0-3/-5-0-0-3/-5-0----0-0-3/-5-0-0----------2------|

|-----------------------------------------------------|
|-----------------------------------------------------|
|----------------------4------------------------------|
|------------------------------------5-5-5-5--7-7-7-7-|
|-2-2-5/-7-2-2-5/-7-2----2-2-5/-7-2--3-3-3-3--5-5-5-5-|
|-0-0-3/-5-0-0-3/-5-0----0-0-3/-5-0-------------------|

|-------------------------------|
|-------------------------------|
|-------------------------------|
|-2---6------5-----2---6---5----|
|-2-5-4----7-3-----2-5-4-7-3----|
|---3---0--5---------3---5------|

|---------------------------------|------------------------------------------|
|---------------------------------|------------------------------------------|
|---------0-----------0-----------|---------0-----------0--------------------|
|-----2-4---4-2-----2---2---2---4-|-----2-4---4-2-----2---2------0-----0-----|
|---2-----------0-3-------4---2---|---2-----------0-3----------2---2-----3-2-|
|-0-------------------------------|-0------------------------3-------2-------|

|-------------------------------------|--------------------------------------------------|
|-------------------------------------|--------------------------------------------------|
|---------0-----------0-----------0---|---------0-----------0----------------------------|
|-----2-4---4-2-----2---2-------4---4-|-----2-4---4-2-----2---2---------------7----------|
|---2-----------0-3-------3/-5--------|---2-----------0-3----------2-5-2----6----3-2-----|
|-0-----------------------------------|-0------------------------3--------7--------------|

|---------------------------------|------------------------------------------|
|---------------------------------|------------------------------------------|
|---------0-----------0-----------|---------0-----------0--------------------|
|-----2-4---4-2-----2---2---2---4-|-----2-4---4-2-----2---2------0-----0-----|
|---2-----------0-3-------4---2---|---2-----------0-3----------2---2-----3-2-|
|-0-------------------------------|-0------------------------3-------2-------|

|-------------------------------------|--------------------------------------------------|
|-------------------------------------|--------------------------------------------------|
|---------0-----------0-----------0---|---------0-----------0----------------------------|
|-----2-4---4-2-----2---2-------4---4-|-----2-4---4-2-----2---2---------------7----------|
|---2-----------0-3-------3/-5--------|---2-----------0-3----------2-5-2----6----3-2-----|
|-0-----------------------------------|-0------------------------3--------7--------------|

|----------------------------------|---------------------1p0----------------|
|-------0-1-0----------0-------0---|-------0-1-0-------------3--------5-----|
|-----2-------2------5---5---5---5-|-----2-------2-----2----------4------4--|
|---2-----------2--4-------3-------|---2-----------2-0----------2---2-------|
|-0--------------------------------|-0--------------------------------------|
|----------------------------------|----------------------------------------|

|-----------------------------------|------------------------------------------------------|
|-------0-1-0----------0------------|-------0-1-0------------------------------------------|
|-----2-------2------5---5-----0----|-----2-------2-------------------------0--------0-----|
|---2-----------2--4----------------|---2-----------2------0-------0------2---2----7---7---|
|-0--------------------------5---5--|-0------------------0---0---3---3--3--------5---------|
|--------------------------3--------|------------------2-------1---------------------------|

|-----------------------------------------------------|
|-----------------------------------------------------|
|----------------------4------------------------------|
|-------------------------------------4/-5/-4---------|
|-2-2-5/-7-2-2-5/-7-2----2-2-5/-7-2-2-2/-3/-2--4------|
|-0-0-3/-5-0-0-3/-5-0----0-0-3/-5-0-0----------2------|

|-----------------------------------------------------|
|-----------------------------------------------------|
|----------------------4------------------------------|
|------------------------------------5-5-5-5--7-7-7-7-|
|-2-2-5/-7-2-2-5/-7-2----2-2-5/-7-2--3-3-3-3--5-5-5-5-|
|-0-0-3/-5-0-0-3/-5-0----0-0-3/-5-0-------------------|

|-----------------------------------------------------|
|-----------------------------------------------------|
|----------------------4------------------------------|
|-------------------------------------4/-5/-4---------|
|-2-2-5/-7-2-2-5/-7-2----2-2-5/-7-2-2-2/-3/-2--4------|
|-0-0-3/-5-0-0-3/-5-0----0-0-3/-5-0-0----------2------|

|-----------------------------------------------------|
|-----------------------------------------------------|
|----------------------4------------------------------|
|------------------------------------5-5-5-5--7-7-7-7-|
|-2-2-5/-7-2-2-5/-7-2----2-2-5/-7-2--3-3-3-3--5-5-5-5-|
|-0-0-3/-5-0-0-3/-5-0----0-0-3/-5-0-------------------|

|-----------------------------------------------------|
|-----------------------------------------------------|
|----------------------4------------------------------|
|-------------------------------------4/-5/-4---------|
|-2-2-5/-7-2-2-5/-7-2----2-2-5/-7-2-2-2/-3/-2--4------|
|-0-0-3/-5-0-0-3/-5-0----0-0-3/-5-0-0----------2------|

|-----------------------------------------------------|
|-----------------------------------------------------|
|----------------------4------------------------------|
|------------------------------------5-5-5-5--7-7-7-7-|
|-2-2-5/-7-2-2-5/-7-2----2-2-5/-7-2--3-3-3-3--5-5-5-5-|
|-0-0-3/-5-0-0-3/-5-0----0-0-3/-5-0-------------------|

|-----------------------------------------------------|
|-----------------------------------------------------|
|----------------------4------------------------------|
|-------------------------------------4/-5/-4---------|
|-2-2-5/-7-2-2-5/-7-2----2-2-5/-7-2-2-2/-3/-2--4------|
|-0-0-3/-5-0-0-3/-5-0----0-0-3/-5-0-0----------2------|

|--------------------------------------------------------|
|--------------------------------------------------------|
|----------------------4---------------------------------|
|------------------------------------5-5-5-5--7-7-7-7--2-|
|-2-2-5/-7-2-2-5/-7-2----2-2-5/-7-2--3-3-3-3--5-5-5-5--2-|
|-0-0-3/-5-0-0-3/-5-0----0-0-3/-5-0----------------------|

|---------------------------------|
|---------------------------------|
|---------------------------------|
|-----------5-------------4-------|
|-----------3-----------1-2-------|
|-3-2-0-0-0---3-2-0-0-0-----------|

|---------------------------------|
|---------------------------------|
|---------------------------------|
|-----------5-------------4-------|
|-----------3-----------1-2-------|
|-3-2-0-0-0---3-2-0-0-0-----------|

|---------------------------------|
|---------------------------------|
|---------------------------------|
|-----------5-------------4-------|
|-----------3-----------1-2-------|
|-3-2-0-0-0---3-2-0-0-0-----------|

|---------------------------------|
|---------------------------------|
|---------------------------------|
|---------------5-----------5-3---|
|---------------3-----------3-1---|
|-2-2-5-3-2-0-0---2-2-5-3-2-------|

|---------------------------------|
|---------------------------------|
|---------------------------------|
|---------------5-----------5-4-3-|
|---------------3-----------3-2-1-|
|-2-2-5-3-2-0-0---2-2-5-3-2-------|

|---------------------------------|
|---------------------------------|
|---------------------------------|
|---------------5-----------5-3---|
|---------------3-----------3-1---|
|-2-2-5-3-2-0-0---2-2-5-3-2-------|

|---------------------------------|
|---------------------------------|
|---------------------------------|
|---------------5-----------5-4-3-|
|---------------3-----------3-2-1-|
|-2-2-5-3-2-0-0---2-2-5-3-2-------|

E|---------------------------------|
B|---------------------------------|
G|---------------------------------|
D|-7-----5-----3-------------------|
A|---6-5---4-3---2-1-----------1---|
E|-------------------4-2-1-2-4-----|

E|------------------------------------|
B|------------------------------------|
G|-7-----5-----3----------------------|
D|---6-5---4-3---2-1----------1-------|
A|-------------------4-2-1-2-4--------|
E|------------------------------------|

E|--------------------------------------------|
B|--------------------------------------------|
G|--------------------------------------------|
D|-2/3-3-2/3-3--------------------------------|
A|-2/3-3-2/3-3-5~~-------2-3-5-3-2------------|
E|-----------------2-3-5-----------5-3-2------|

E|---------------------------------------------------|
B|---------------------------------------------------|
G|---------------------------------------------------|
D|-2/3-3-2/3-3---------------------------------------|
A|-2/3-3-2/3-3---------------------------------------|
E|-----------------10-8-7---8-7-5---7-5-3---5-3-2----|

E|--------------------------------------------|
B|--------------------------------------------|
G|--------------------------------------------|
D|-2/3-3-2/3-3--------------------------------|
A|-2/3-3-2/3-3-5~~-------2-3-5-3-2------------|
E|-----------------2-3-5-----------5-3-2------|

E|---------------------------------------------------|
B|---------------------------------------------------|
G|---------------------------------------------------|
D|-2/3-3-2/3-3---------------------------------------|
A|-2/3-3-2/3-3---------------------------------------|
E|-----------------10-8-7---8-7-5---7-5-3---5-3-2----|

E|----------------------------------|
B|----------------------------------|
G|----------------------------------|
D|----------------------------------|
A|-7-6-4-7--7-6-4-6-7-6-4--7-6-4-7--|
E|----------------------------------|

E|----------------------------------------------------------|
B|----------------------------------------------------------|
G|----------------------------------754---------------------|
D|-7-5-4-7--7-5-4-5-7-5-4--7-5-4-7------754-----------------|
A|------------------------------------------754-------------|
E|----------------------------------------------------------|
Composição de John Petrucci / Jordan Rudess / Mike Portnoy
Colaboração e revisão:
  • Gustavo Uhdre
14.430 exibições
    • ½ Tom
    • A
    • Bb
    • B
    • C
    • Db
    • D
    • Eb
    • E
    • F
    • F#
    • G
    • Ab
  • Adicionar à lista

    0 comentários

    Ver todos os comentários

    Conseguiu tocar?

    0 Tocaram 0 Ainda não

    Grave um vídeo tocando Endless Sacrifice e nos envie!

    00:00 / 00:00
    outros vídeos desta música
    repetir qualidade Automático
    Outros vídeos desta música
    00:00 / 00:00
    Automático

    Cifra Club Pro

    Aproveite o Cifra Club com benefícios exclusivos e sem anúncios
    Cifra Club Pro
    Aproveite o Cifra Club com benefícios exclusivos e sem anúncios
    OK