Cifra Club

Aprenda

Overture 1928

Dream Theater

Cifra: Principal (violão e guitarra)
tom: F#
     D5
     Gtr.1 (fades in)
     P.M._ _ _ _ _ _ _ _ _ _ _ _ _ _ _ _ _ _ _ _ _ _ _ _ _ _ _ _ _ _ _ _ _ _
     __3__      __3__ __3__    __3__      __3__      __3__ __3__    __3__    
E||-------------------------------------|------------------------------------| 
B||-------------------------------------|------------------------------------| 
G||4------------------------------------|------------------------------------| 
D||4-0-0-0-0----0-0-0-0-0-0-0--0-0-0-0--|-0-0-0-0----0-0-0-0-0-0-0--0-0-0-0--| 
A||-------------------------------------|------------------------------------| 
E||-------------------------------------|------------------------------------|
 
 
 
 
 
   Gtr.1
   _ _ _ _ _ _ _ _ _ _ _ _ _ _ _ _ _ _ _ _ _ _ _ _ _ _ _ _ _ _ _ _ _ _ _ _
   __3__      __3__ __3__    __3__      __3__      __3__ __3__    __3__    
E|------------------------------------|------------------------------------| 
B|------------------------------------|------------------------------------| 
G|------------------------------------|------------------------------------| 
D|-0-0-0-0----0-0-0-0-0-0-0--0-0-0-0--|-0-0-0-0----0-0-0-0-0-0-0--0-0-0-0--| 
A|------------------------------------|------------------------------------| 
E|------------------------------------|------------------------------------|
 
 
 
 
 
   Gtr.1
   _ _ _ _ _ _ _ _ _ _ _ _ _ _ _ _ _ _ _ _ _ _ _ _ _ _ _ _ _ _ _ _ _ _ _ _
   __3__      __3__ __3__    __3__      __3__      __3__ __3__    __3__    
E|------------------------------------|------------------------------------| 
B|------------------------------------|------------------------------------| 
G|------------------------------------|------------------------------------| 
D|-0-0-0-0----0-0-0-0-0-0-0--0-0-0-0--|-0-0-0-0----0-0-0-0-0-0-0--0-0-0-0--| 
A|------------------------------------|------------------------------------| 
E|------------------------------------|------------------------------------|
 
 
 
 
 
   Gtr.1
   _ _ _ _ _ _ _ _ _ _ _ _ _ _ _ _ _ 
   __3__      __3__ __3__    __3__      __3__      __3__ __3__    __3__       __3__
E|------------------------------------|------------------------------------|---------------|
B|------------------------------------|------------------------------------|---------------|
G|------------------------------------|-7-7-7-7----7-7-7-7-7-7-7--7-7-7-7--|2-7-7-7-7------|
D|-0-0-0-0----0-0-0-0-0-0-0--0-0-0-0--|-7-7-7-7----7-7-7-7-7-7-7--7-7-7-7--|4-7-7-7-7------|
A|------------------------------------|-5-5-5-5----5-5-5-5-5-5-5--5-5-5-5--|--5-5-5-5------|
E|------------------------------------|-5-5-5-5----5-5-5-5-5-5-5--5-5-5-5--|--5-5-5-5------|
 | Gtr.2
 | P.M._ _ _ _ _ _ _ _ _ _ _ _ _ _ _ _ _ _ _ _ _ _ _ _ _ _ _ _ _ _ _ _ _ _
 | __3__      __3__ __3__    __3__      __3__      __3__ __3__    __3__    
E|------------------------------------|------------------------------------|---------------|
B|------------------------------------|------------------------------------|---------------|
G|------------------------------------|------------------------------------|2--------------|
D|------------------------------------|------------------------------------|4--------------|
A|------------------------------------|------------------------------------|---------------|
D|-0-0-0-0----0-0-0-0-0-0-0--0-0-0-0--|-0-0-0-0----0-0-0-0-0-0-0--0-0-0-0--|---------------|
 
 
 
 
    D (Lydian)                                        D5
    Gtr.1
          P.M.     P.M.   P.M.        P.M.      P.M.   P.M.    
E|----------------------------|----------------------------| 
B|--7---7-----7--------7------|-7---7-----7--7-----10------| 
G|4-7---7-----7--------7------|-7---7-----7--7------7------| 
D|4-0---0-0-0-0----0-0-0--0-0-|-0---0-0-0-0--0--0-0-0--0-0-| 
A|----------------------------|----------------------------| 
E|----------------------------|----------------------------|
 
 
 
 
   D(#11)                                            D5
   Gtr.1
         P.M.     P.M.   P.M.        P.M.     P.M.   P.M.    
E|---------------------------|---------------------------| 
B|-9---9-----9--------9------|-9---9-----9-------10------| 
G|-7---7-----7--------7------|-7---7-----7--------7------| 
D|-0---0-0-0-0----0-0-0--0-0-|-0---0-0-0-0----0-0-0--0-0-| 
A|---------------------------|---------------------------| 
E|---------------------------|---------------------------|
 
 
 
 
   D                                                  D5
   Gtr.1
         P.M.     P.M.   P.M.        P.M.      P.M.   P.M.    
E|---------------------------|----------------------------| 
B|-7---7-----7--------7------|-7---7-----7--7-----10------| 
G|-7---7-----7--------7------|-7---7-----7--7------7------| 
D|-0---0-0-0-0----0-0-0--0-0-|-0---0-0-0-0--0--0-0-0--0-0-| 
A|---------------------------|----------------------------| 
E|---------------------------|----------------------------|
 
 
 
 
   D(#11)                      N.C.
   Gtr.1
                               w/slight P.M.
         P.M.     P.M.   P.M.  _____6______ _____6_____ _____6_____ _____6_____     
E|---------------------------|--------------------------------------------------| 
B|-9---9-----9--------9------|-9-10-9-7-----------------------------------------| 
G|-7---7-----7--------7------|----------9-7-6-9-7-6-----------------------------| 
D|-0---0-0-0-0----0-0-0--0-0-|----------------------9-7-6-9-7-6-----------------| 
A|---------------------------|----------------------------------9-7-5-9-7-5-----| 
E|---------------------------|----------------------------------------------9-7-|
 
 
 
 
   Asus2                    Bsus
   Gtr.1
E|------------------------|------------------------| 
B|----------0----------0--|----------0----0--------| 
G|-2-----2-------2--------|-------4----------4-----| 
D|-2---2------------2-----|-4---4---------------4--| 
A|-0----------------------|-2----------------------| 
E|------------------------|------------------------|
 | Gtr.3 (Acoustic)
E|-0----------------------|-0----------------------| 
B|-0----------------------|-0----------------------| 
G|-2----------------------|-4----------------------| 
D|-2----------------------|-4----------------------| 
A|-0----------------------|-2----------------------| 
E|------------------------|------------------------|
 
 
 
 
   Asus2                    F#11
   Gtr.1
E|------------------------|------------------------| 
B|----------0-------------|----------0-------0-----| 
G|-2-----2----------------|---------------3--------| 
D|-2---2---------------4--|-------4-------------4--| 
A|-0----------------2-----|-----4------------------| 
E|---------------0--------|-2----------------------|
 | Gtr.3 
E|-0----------------------|-0----------------------| 
B|-0----------------------|-0----------------------| 
G|-2----------------------|-3----------------------| 
D|-2----------------------|-4----------------------| 
A|-0----------------------|-4----------------------| 
E|------------------------|-2----------------------|
 
 
 
 
   Asus2                    Bsus
   Gtr.1
E|------------------------|------------------------| 
B|----------0----------0--|----------0----0--------| 
G|-2-----2-------2--------|-------4----------4-----| 
D|-2---2------------2-----|-4---4---------------4--| 
A|-0----------------------|-2----------------------| 
E|------------------------|------------------------|
 | Gtr.3 
E|-0----------------------|-0----------------------| 
B|-0----------------------|-0----------------------| 
G|-2----------------------|-4----------------------| 
D|-2----------------------|-4----------------------| 
A|-0----------------------|-2----------------------| 
E|------------------------|------------------------|
 
 
 
 
   Csus2                  D        Dsus   D
   Gtr.1
E|----------3-----------|----------3------2----| 
B|---------------3------|-3-----3---------3----| 
G|-5-----5--------------|-2---2----------------| 
D|-5---5----------------|-0--------------------| 
A|-3--------------------|----------------------| 
E|----------------------|----------------------|
 | Gtr.3
E|-3--------------------|-2--------3------2----| 
B|-3--------------------|-3--------3------3----| 
G|-5--------------------|-2--------2------2----| 
D|-5--------------------|-0--------0------0----| 
A|-3--------------------|----------------------| 
E|----------------------|----------------------|
 
 
 
 
    N.C.
    Gtr.1
                 P.M._                 P.M._ _
E|----------------------|---------------------| 
B|----------------------|---------------------| 
G|3---------------------|---------------------| 
D|4---------------------|---------------------| 
A|---------------2-2-2--|-5-4----------2--2-2-| 
E|--0-2-4-6---0--0-0-0--|-----2-4---0--0--0-0-|
 
 
 
 
 
   Gtr.1            
                P.M._ _             P.M.
                __3__                   _____6_____
E|-----------------------|--------------------------| 
B|-----------------------|--------------------------| 
G|-----------------------|--------------------------| 
D|-----------------------|-----4-6------------------| 
A|--------------2-2-2-2--|-5-7----------------3-5-7-| 
E|-0-2-4-6---0--0-0-0-0--|-----------0--2-4-6-------|
 
 
 
 
 
   Gtr.1
                P.M._                 P.M._ _
E|---------------------|---------------------| 
B|---------------------|---------------------| 
G|---------------------|---------------------| 
D|---------------------|---------------------| 
A|--------------2-2-2--|-5-4----------2--2-2-| 
E|-0-2-4-6---0--0-0-0--|-----2-4---0--0--0-0-|
 
 
 
 
                                                             D/A F5
   Gtr.1
                P.M._ _ _                               __3__      
E|-------------------------|----------------------------------------| 
B|-------------------------|----------------------------------------| 
G|-------------------------|5---------------------------------------| 
D|-------------------------|4-----4-6-------------------------0-3---| 
A|--------------2-2-2-2-2--|--5-7-----7-5-----7----5----3-1---0-3---| 
E|-0-2-4-6---0--0-0-0-0-0--|--------------6-4---6----4------2---1---|
 
 
 
 
    E5
    Gtr.1
    P.M._ _ _ _ _ _ _ _ _ _ _ _ _ _ _
    __3__     __3__ __3__    __3__
E|------------------------------------| 
B|------------------------------------| 
G|4-----------------------------------| 
D|4-----------------------------------| 
A|------------------------------------| 
E|--0-0-0-----0-0-0-0-0-0-0--0-0-0-0--|
 
 
 
 
   D (Lydian)                                      D5
   Gtr.1
         P.M.     P.M.   P.M.        P.M.      P.M.   P.M.    
E|---------------------------|----------------------------| 
B|-7---7-----7--------7------|-7---7-----7--7-----10------| 
G|-7---7-----7--------7------|-7---7-----7--7------7------| 
D|-0---0-0-0-0----0-0-0--0-0-|-0---0-0-0-0--0--0-0-0--0-0-| 
A|---------------------------|----------------------------| 
E|---------------------------|----------------------------|
 
 
 
 
   D(#11)                                    
   Gtr.1
         P.M.     P.M.   P.M.        P.M.       
E|---------------------------|---------------------7-------| 
B|-9---9-----9--------9------|-9---9-----9----9^10----10^9-| 
G|-7---7-----7--------7------|-7---7-----7-----------------| 
D|-0---0-0-0-0----0-0-0--0-0-|-0---0-0-0-0-----------------| 
A|---------------------------|-----------------------------| 
E|---------------------------|-----------------------------|
 
 
 
 
   D                                                 D5
   Gtr.1
         P.M.     P.M.   P.M.        P.M.      P.M.   P.M.    
E|---------------------------|----------------------------| 
B|-7---7-----7--------7------|-7---7-----7--7-----10------| 
G|-7---7-----7--------7------|-7---7-----7--7------7------| 
D|-0---0-0-0-0----0-0-0--0-0-|-0---0-0-0-0--0--0-0-0--0-0-| 
A|---------------------------|----------------------------| 
E|---------------------------|----------------------------|
 
 
 
 
   D(#11)                                D/F# G  Em
   Gtr.1
         P.M.     P.M.   P.M.  
E|---------------------------|----------------------| 
B|-9---9-----9--------9------|-9--------------------| 
G|-7---7-----7--------7------|-7--------------------| 
D|-0---0-0-0-0----0-0-0--0-0-|-0----------4--5------| 
A|---------------------------|------------5--5------| 
E|---------------------------|--------0-0--------0--|
 
 
 
 
   Bm                   G
   Gtr.1
E|-2------------------|-3---------------------| 
B|-3------------------|-3---------------------| 
G|-4------------------|-0---------------------| 
D|-4------------------|-0---------------------| 
A|-2------------------|-2---------------------| 
E|--------------------|-3---------------------|
 | Gtr.4
 | ~~~~~~~~~            1/2       ____3____ 
E|--------------------|-----------------------| 
B|-----------/7----7--|-7b-----r--------------| 
G|/4------------------|-----------7^^^9-/11---| 
D|--------------------|-----------------------| 
A|--------------------|-----------------------| 
E|--------------------|-----------------------|
 
 
 
 
   Em                         D             A
   Gtr.1
E|-0------------------------|-2-------------------------| 
B|-0------------------------|-3-------------------------| 
G|-0------------------------|-2-------------2-----------| 
D|-2------------------------|-0-------------2-----------| 
A|-2------------------------|---------------4-----------| 
E|-0------------------------|---------------------------|
 | Gtr.4
 | ~~~~~       _____3____                          ~~~~~
E|--------------------------|---------------------------| 
B|-----------7^8^^^10^^^8---|10^8^7----8----7^^8^7------| 
G|-9----\--9----------------|----------------------9----| 
D|--------------------------|---------------------------| 
A|--------------------------|---------------------------| 
E|--------------------------|---------------------------|
 
 
 
 
   Bm                       G
   Gtr.1
E|-2----------------------|-3-----------------------| 
B|-3----------------------|-3-----------------------| 
G|-4----------------------|-0-----------------------| 
D|-4----------------------|-0-----------------------| 
A|-2----------------------|-2-----------------------| 
E|------------------------|-3-----------------------|
 | Gtr.4
 |                          ____3____   ____3____ 
 | ~~~~~~     ____3____     1/2  
E|------------------------|-------------------------| 
B|--------------------7---|-7b--r---------------7---| 
G|--------6^9-7---9-------|---------9---7---9-------| 
D|-9----------------------|-------------------------| 
A|------------------------|-------------------------| 
E|------------------------|-------------------------|
 
 
 
 
   Em                             D           A
   Gtr.1
E|-0----------------------------|-2----------------------------------| 
B|-0----------------------------|-3----------------------------------| 
G|-0----------------------------|-2-----------2----------------------| 
D|-2----------------------------|-0-----------2----------------------| 
A|-2----------------------------|-------------4----------------------| 
E|-0----------------------------|------------------------------------|
 | Gtr.4
 |                      __3__
 | ~~~~~       _______3_______               A.H.   _______6________
E|------------------------------|------------------------------------| 
B|-8---------7-8---10---8^10^8--|-7---/10----10----------------14-17-| 
G|---------9--------------------|------------------------15-16-------| 
D|-------9----------------------|------------------14-16-------------| 
A|------------------------------|------------------------------------| 
E|------------------------------|------------------------------------|
 
 
 
 
   F#7
   Gtr.4
   1         1/2            1/2 ~~~~~~~
E|------------------------------|-------------14^18^14-------------------| 
B|17b-r-----------------16--16b-|-(16b)-14^17----------17^14-------------| 
G|-----------15b-r--------------|3---------------------------16^15-------| 
D|-------16---------16----------|4---------------------------------16^14-| 
A|------------------------------|----------------------------------------| 
E|------------------------------|----------------------------------------|
 
 
 
 
 
   Gtr.4
     1         1/2                                            ___3___
E|--------------------------------|-----------------------------------| 
B|--17b-r-------------------------|--------------------------------14-| 
G|4------------15b-r--------------|---15-\13-\11--13-\11--9-----15----| 
D|4--------16---------16----------|--------------------------16-------| 
A|------------------------14--13--|---13-\11--\9--11--\9--7-----------| 
E|--------------------------------|-----------------------------------|
 
 
 
 
 
   Gtr.4
   1         1/2            1/2 ~~~~~~~
E|------------------------------|-------------18^21^18-------------------| 
B|17b-r-----------------16--16b-|-(16b)-17^19----------19-17-19-------17-| 
G|-----------15b-r--------------|3------------------------------18\15----| 
D|-------16---------16----------|4---------------------------------------| 
A|------------------------------|----------------------------------------| 
E|------------------------------|----------------------------------------|
 
 
 
 
 
     Gtr.4
E|-----------------------------------14----------------| 
B|--16-17^16^14----------------------------------------| 
G|4-------------17-16-15-14-15-16-17----17-16-15-14----| 
D|4-------------------------------------------------16-| 
A|-----------------------------------------------------| 
E|-----------------------------------------------------|
 
 
 
 
 
   Gtr.4
   ___3___           ___3___  ___3___  ___3___  ___3___ 1/2 ~~
E|------------------------------------------------17-19-19b---| 
B|---------14-------------------------14-16-17/19-------------| 
G|---------------------------14-16-17-------------------------| 
D|14-15-16----16-15-14-15-16----------------------------------| 
A|------------------------------------------------------------| 
E|------------------------------------------------------------|
 
 
 
 
   Asus2                    B5
   Gtr.1
E|------------------------|------------------------| 
B|----------0----------0--|----------0----0--------| 
G|-2-----2-------2--------|-------4----------4-----| 
D|-2---2------------2-----|-4---4---------------4--| 
A|-0----------------------|-2----------------------| 
E|------------------------|------------------------|
 | Gtr.3
E|-0----------------------|-0----------------------| 
B|-0----------------------|-0----------------------| 
G|-2----------------------|-4----------------------| 
D|-2----------------------|-4----------------------| 
A|-0----------------------|-2----------------------| 
E|------------------------|------------------------|
 | Gtr.4
 | ~~~~~~~~~
E|(19b)-----\-------------|------------------------| 
B|------------------------|------------------------| 
G|------------------------|------------------------| 
D|------------------------|------------------------| 
A|------------------------|------------------------| 
E|------------------------|------------------------|
 
 
 
 
   Asus2                    F(#11)
   Gtr.1
E|------------------------|------------------------| 
B|----------0-------------|----------0-------0-----| 
G|-2-----2----------------|---------------3--------| 
D|-2---2---------------4--|-------4-------------4--| 
A|-0----------------2-----|-----4------------------| 
E|---------------0--------|-2----------------------|
 | Gtr.3 
E|-0----------------------|-0----------------------| 
B|-0----------------------|-0----------------------| 
G|-2----------------------|-3----------------------| 
D|-2----------------------|-4----------------------| 
A|-0----------------------|-4----------------------| 
E|------------------------|-2----------------------|
 
 
 
 
   Asus2                    B5
   Gtr.1
E|------------------------|------------------------| 
B|----------0----------0--|----------0----0--------| 
G|-2-----2-------2--------|-------4----------4-----| 
D|-2---2------------2-----|-4---4---------------4--| 
A|-0----------------------|-2----------------------| 
E|------------------------|------------------------|
 | Gtr.3 
E|-0----------------------|-0----------------------| 
B|-0----------------------|-0----------------------| 
G|-2----------------------|-4----------------------| 
D|-2----------------------|-4----------------------| 
A|-0----------------------|-2----------------------| 
E|------------------------|------------------------|
 
 
 
 
   Csus2                  D        Dsus   D
   Gtr.1
E|----------3-----------|----------3------2----| 
B|---------------3------|-3-----3---------3----| 
G|-5-----5--------------|-2---2----------------| 
D|-5---5----------------|-0--------------------| 
A|-3--------------------|----------------------| 
E|----------------------|----------------------|
 | Gtr.3
E|-3--------------------|-2--------3------2----| 
B|-3--------------------|-3--------3------3----| 
G|-5--------------------|-2--------2------2----| 
D|-5--------------------|-0--------0------0----| 
A|-3--------------------|----------------------| 
E|----------------------|----------------------|
 
 
 
 
   C#m                       Bsus
   Gtr.3
E|-4--4-4-4--4---4-4--4----|-0--0-0-0--0---0-0--0-----| 
B|-5--5-5-5--5---5-5--5----|-0--0-0-0--0---0-0--0-----| 
G|-6--6-6-6--6---6-6--6----|-4--4-4-4--4---4-4--4-----|
D|-6--6-6-6--6---6-6--6----|-4--4-4-4--4---4-4--4-----| 
A|-4--4-4-4--4---4-4--4----|-2--2-2-2--2---2-2--2-----| 
E|-------------------------|--------------------------|
 | Gtr.4
 | ~~~~~~~~~                 ~~~~~~~~~
E|-------------------------|--------------------------| 
B|\4^^^^^^^^^5--------7----|-4------------------------| 
G|-------------------------|-----------4--------------| 
D|-------------------------|-----------------------6--| 
A|-------------------------|--------------------------| 
E|-------------------------|--------------------------|
 
 
 
 
   G#m                       Asus2
   Gtr.3
E|-4--4-4-4--4---4-4--4----|-0--0-0-0--0---0-0--0-----| 
B|-4--4-4-4--4---4-4--4----|-0--0-0-0--0---0-0--0-----| 
G|-4--4-4-4--4---4-4--4----|-2--2-2-2--2---2-2--2-----|
D|-6--6-6-6--6---6-6--6----|-2--2-2-2--2---2-2--2-----|
A|-6--6-6-6--6---6-6--6----|-0--0-0-0--0---0-0--0-----|
E|-4--4-4-4--4---4-4--4----|--------------------------|
 | Gtr.4
 |    ~~~~~~~~~~       1     ~~~~~~~~~~~~~
E|-------------------------|--------------------------| 
B|-------------------------|-----------------------4--| 
G|4^6^4------------6--6b---|-r------------------6-----| 
D|-------------------------|----------------/6--------| 
A|-------------------------|--------------------------| 
E|-------------------------|--------------------------|
 
 
 
 
   C#m                        Bsus
   Gtr.3
E|-4--4-4-4--4---4-4--4-----|-0--0-0-0--0---0-0--0-----| 
B|-5--5-5-5--5---5-5--5-----|-0--0-0-0--0---0-0--0-----| 
G|-6--6-6-6--6---6-6--6-----|-4--4-4-4--4---4-4--4-----|
D|-6--6-6-6--6---6-6--6-----|-4--4-4-4--4---4-4--4-----| 
A|-4--4-4-4--4---4-4--4-----|-2--2-2-2--2---2-2--2-----| 
E|--------------------------|--------------------------|
 | Gtr.4
 |                            ~~~~~~~~~~~~~____3____
E|--------------------------|-----------------9---11---| 
B|-5--------/7--------9/12--|12------------------------| 
G|--------------------------|--------------------------| 
D|--------------------------|--------------------------| 
A|--------------------------|--------------------------| 
E|--------------------------|--------------------------|
 
 
 
 
   G#m                        Asus2
   Gtr.3
E|-4--4-4-4--4---4-4--4-----|-0--0-0-0--0---0-0--0-----------| 
B|-4--4-4-4--4---4-4--4-----|-0--0-0-0--0---0-0--0-----------| 
G|-4--4-4-4--4---4-4--4-----|-2--2-2-2--2---2-2--2-----------|
D|-6--6-6-6--6---6-6--6-----|-2--2-2-2--2---2-2--2-----------|
A|-6--6-6-6--6---6-6--6-----|-0--0-0-0--0---0-0--0-----------|
E|-4--4-4-4--4---4-4--4-----|--------------------------------|
 | Gtr.4
 |1/2 ~~~~~~~~~~~~~~~ __3__   1 ~~~~~~~~~~~~~~~~~~~~ ___3___
E|11b-----------------r-9---|-----------------------------11-| 
B|------------------------9-|12b-----------------------12----| 
G|--------------------------|-----------------------11-------| 
D|--------------------------|--------------------------------| 
A|--------------------------|--------------------------------| 
E|--------------------------|--------------------------------|
 
 
 
 
   Bsus
   Gtr.3
E|-0-----0--0--0-----0------0-0---0--------| 
B|-0-----0--0--0-----0------0-0---0--------| 
G|-4-----4--4--4-----4------4-4---4--------| 
D|-4-----4--4--4-----4------4-4---4--------| 
A|-2-----2--2--2-----2------2-2---2--------| 
E|-----------------------------------------|
 | Gtr.4
 | 1
E|14b-r-11---------------------------------| 
B|---------12----12------12----------------| 
G|------------11----11\9----9\8-----11-9-8-| 
D|------------------------------9----------| 
A|--------------------------------9--------| 
E|-----------------------------------------|
 
 
 
 
   C5                       D5      A5                       B5
   Gtr.4
                            ~~~     ~~~~~~~~                 ~~~~~
E|-----------------7------------------|---------------------------| 
B|---------------8---10-8-7-----------|--------------------7------| 
G|-9-7---------9------------9--7------|3-----------------7---9----| 
D|-----10-9-10-------------------10-9-|4-(9)-7---------9----------| 
A|------------------------------------|--------10-9-10------------| 
E|------------------------------------|---------------------------|
 
 
 
 
    C5                         D5      A5                        B5        F#5
    Gtr.1
                               ~~~
E|----------------7-10--8-7--------------|-------------------------------------------| 
B|--8-7---------8-----------10-8--7------|------------------7-10-8-7-----------------| 
G|4------9-7--9----------------------9-7-|-9-7------------7-----------9-7-----9------| 
D|4--------------------------------------|-----10--9-7--9-----------------10----7----| 
A|---------------------------------------|----------------------------------------10-| 
E|---------------------------------------|-------------------------------------------|
 |  Gtr.4                      ~~~
E|-------------------7-------------------|-------------------------------------------| 
B|----------------8----10-8--7-----------|---------------------7---------------------| 
G|4-9-7---------9--------------9--7------|------------------7----9-7-----------------| 
D|4-----10-9-10---------------------10-9-|10-9--7---------9----------10-9--7-10------| 
A|---------------------------------------|--------10-9-10-----------------------9--7-| 
E|---------------------------------------|-------------------------------------------|
 
 
 
 
   N.C.
   Gtr.1
                               ~~~      ~~
E|-------------------7--------------------| 
B|-----------------8---10--8-7------------| 
G|-9--7---------9--------------9---7------| 
D|------10-9-10----------------------10-9-| 
A|----------------------------------------| 
E|----------------------------------------|
 | Gtr.4
 |                             ~~~      ~~
E|----------------------------------------| 
B|----------------------------------------| 
G|----------------------------------------| 
D|-------------------9--7-----------------| 
A|-7------------7-10------10-9-7----------| 
E|---10--8-7--8-------------------10--8-7-|
 
 
 
 
 
   Gtr.1
   ~~~
E|---------------------------------------|------------| 
B|------------------7--------------------|------------| 
G|----------------7---9-7----------------|2-----------| 
D|(9)-7---------9---------10-9-7-10------|4-----------| 
A|------10-9-10---------------------9----|------------| 
E|------------------------------------12-|-(12)-------|
 | Gtr.4
 | ~~~
E|---------------------------------------|------------| 
B|---------------------------------------|------------| 
G|---------------------------------------|2-----------| 
D|------------------4-2------------------|4-----------| 
A|--------------2-5-----5--3-2----3------|------------| 
E|(7)-5--3-2--3----------------5----2--0-|--(0)-------|
 
 
 
 
 
   Gtr.1
    P.M._ _ _ _ _ _ _ _ _ _ _ _ _ _ _ _ _ _ _ _ _ _ _ _ _ _ _ _ _ _
E|---------------------------------|-------------------------------| 
B|---------------------------------|-------------------------------| 
G|4--------------------------------|7------------------------------| 
D|4--------------------------------|8------------------------------| 
A|--7-----6------5-4---3-2---1-0---|--------------3-3-2-2-1-1-0----| 
E|----7-0---7-0------0-----0-----2-|--3-3-2-2-1-1----------------3-|
 
 
 
 
 
   Gtr.1
    _ _ _ _ _ _ _ _ _ _ _ _ _ _ _ _ _ _ _ _ _ _ _ _ _ _ _ _ _ _ _ _
E|---------------------------------|-------------------------------| 
B|---------------------------------|-------------------------------| 
G|4--------------------------------|7------------------------------| 
D|4--------------------------------|8------------------------------| 
A|--7-----6------5-4---3-2---1-0---|--------------3-3-2-2-1-1-0----| 
E|----7-0---7-0------0-----0-----2-|--3-3-2-2-1-1----------------2-|
 
 
 
 
                                Ab5 (Ab Lydian)      Ab(#11) Ab 
   Gtr.1
   _ _ _ _ _ _ _ _ _ _ _ _ _               P.M.                       P.M.
E|---------------------------|----------------------|---------------------|
B|---------------------------|----------------------|---------------------|
G|---------------------------|4-8--------------8----|-7------5------------|
D|-----------------------2---|4-6----------6-6-6----|-6------6--------6-6-|
A|-------------3-3-2-2-1-0---|----------------------|---------------------|
E|-3-3-2-2-1-1---------------|----------------------|---------------------|
 
 
 
 
   Ab5          Ab6   Ab(#11) Ab5          F5 (F Lydian) 
   Gtr.1
                                                      P.M.
E|-------------------|-------------------|---------------------| 
B|-------------------|-------------------|---------------------| 
G|-8-----------10----|-7------8----------|-5--------------5----| 
D|-6------------6----|-6------6----------|-3----------3-3-3----| 
A|-------------------|-------------------|---------------------| 
E|-------------------|-------------------|---------------------|
 
 
 
 
   F(#4)  F              F5           F6     F(#11) F5
   Gtr.1
E|---------------------|-------------------|-------------------|  
B|---------------------|-------------------|-------------------|  
G|-4------2--------2-4-|-5------------7----|-4------5----------|  
D|-3------3--------3---|-3------------3----|-3------3----------|  
A|---------------------|-------------------|-------------------|  
E|---------------------|-------------------|-------------------|
 
 
 
 (Cb Lydian)
   B5 B(#11) B         B5 B(#11) B         C#5    C#sus C#
   Gtr.1
                    P.M.                   P.M.
E|----------------------|----------------------|-----------------------| 
B|-7------6----4--------|-7------6----4--------|-9----9--7----6--------| 
G|-4------4----4----4-4-|-4------4----4----4-4-|-6----6--6----6----6-6-| 
D|----------------------|----------------------|-----------------------| 
A|----------------------|----------------------|-----------------------| 
E|----------------------|----------------------|-----------------------|
 
 
 
                          (Ab Lydian)
   C#5    C#sus C#         G#5                 G#(#11)
   Gtr.1
E|-----------------------|----------------------------|---------------------|| 
B|-9----9--7----6--------|----------------------------|---------------------||
G|-6----6--6----6----6-6-|-8-8-8-8---8-8-8-8---7-7-7--|---7-7-7-7-----------||
D|-----------------------|-6-6-6-6---6-6-6-6---6-6-6--|---6-6-6-6-----------||
A|-----------------------|----------------------------|---------------------||
E|-----------------------|-4-4-4-4---4-4-4-4---4-4-4--|---4-4-4-4-----------||
Composição de Dream Theater
19.683 exibições
    • ½ Tom
    • A
    • Bb
    • B
    • C
    • Db
    • D
    • Eb
    • E
    • F
    • F#
    • G
    • Ab
  • Adicionar à lista

    0 comentários

    Ver todos os comentários
    00:00 / 00:00
    outros vídeos desta música
    repetir qualidade Automático
    Outros vídeos desta música
    00:00 / 00:00
    Automático

    Cifra Club Pro

    Aproveite o Cifra Club com benefícios exclusivos e sem anúncios
    Cifra Club Pro
    Aproveite o Cifra Club com benefícios exclusivos e sem anúncios
    OK