Cifra Club

Aprenda

Pull me under

Dream Theater

Cifra: Principal (violão e guitarra)
tom: G
Intro

                             ~~~~~~~~~                        ~~~~~~~~~~
E|---------------------------------|---------------------------------||
B|---------------------------------|---------------------------------||
G|-----------------0-------0-------|----------------0-------0--------||
D|-----------7---------------------|---------4-----------------------||
A|---------------------------------|---------------------------------||
E|---0-----------------------------|---0-----------------------------||

                             ~~~~~~~~~
E|---------------------------------|---------------------------------||
B|---------------------------------|-----------------------------0---||
G|----------------0--------0-------|-----------0------------2--------||
D|---------------------------------|-------------------0-------------||
A|---------4-----------------------|-------3-------------------------||
E|---0-----------------------------|--0------------------------------||

                             ~~~~~~~~~                        ~~~~~~~~~~
E|---------------------------------|---------------------------------||
B|---------------------------------|---------------------------------||
G|-----------------0-------0-------|----------------0-------0--------||
D|-----------7---------------------|---------4-----------------------||
A|---------------------------------|---------------------------------||
E|---0-----------------------------|---0-----------------------------||

                             ~~~~~~~~~
E|---------------------------------|---------------------------------||
B|---------------------------------|-----------------------------0---||
G|----------------0--------0-------|-----------0------------2--------||
D|---------------------------------|---------------------------------||
A|---------4-----------------------|-------3-------------------------||
E|---0-----------------------------|--0-----------------1------------||

                             ~~~~~~~~~                        ~~~~~~~~~~
E|---------------------------------|---------------------------------||
B|---------------------------------|---------------------------------||
G|-----------------0-------0-------|----------------0-------0--------||
D|-----------7---------------------|---------4-----------------------||
A|---------------------------------|---------------------------------||
E|---0-----------------------------|---0-----------------------------||

                             ~~~~~~~~~
E|---------------------------------|---------------------------------||
B|---------------------------------|-----------------------------0---||
G|----------------0--------0-------|-----------0------------2--------||
D|---------------------------------|-------------------0-------------||
A|---------4-----------------------|-------3-------------------------||
E|---0-----------------------------|--0------------------------------||

                             ~~~~~~~~~                        ~~~~~~~~~~
E|---------------------------------|---------------------------------||
B|---------------------------------|---------------------------------||
G|-----------------0-------0-------|----------------0-------0--------||
D|-----------7---------------------|---------4-----------------------||
A|---------------------------------|---------------------------------||
E|---0-----------------------------|---0-----------------------------||

                             ~~~~~~~~~
E|---------------------------------|---------------------------------||
B|---------------------------------|-----------------------------0---||
G|----------------0--------0-------|-----------0------------2--------||
D|---------------------------------|---------------------------------||
A|---------4-----------------------|-------3-------------------------||
E|---0-----------------------------|--0-----------------1------------||

E|-----------------------0---------|----------------------0----------||
B|----------------------------0----|----------------------------0----||
G|-------------0-------------------|------------0--------------------||
D|---------7-----------------------|--------4------------------------||
A|---------------------------------|---------------------------------||
E|---0--------------0--------------|---0-------------0---------------||

E|-----------------------0---------|---------------------------------||
B|----------------------------0----|------------------------------0--||
G|-------------0-------------------|-------------0------------2------||
D|---------------------------------|----------------------0----------||
A|---------4-----------------------|---------3-----------------------||
E|---0--------------0--------------|--0------------------------------||

E|-----------------------0---------|----------------------0----------||
B|----------------------------0----|----------------------------0----||
G|-------------0-------------------|------------0--------------------||
D|---------7-----------------------|--------4------------------------||
A|---------------------------------|---------------------------------||
E|---0--------------0--------------|---0-------------0---------------||

E|-----------------------0---------|---------------------------------||
B|----------------------------0----|------------------------------0--||
G|-------------0-------------------|-------------0------------2------||
D|---------------------------------|---------------------------------||
A|----------4----------------------|---------3-----------------------||
E|---0--------------0--------------|--0--------------------1---------||

E|-----------------------0---------|----------------------0----------||
B|----------------------------0----|----------------------------0----||
G|-------------0-------------------|------------0--------------------||
D|---------7-----------------------|--------4------------------------||
A|---------------------------------|---------------------------------||
E|---0--------------0--------------|---0-------------0---------------||

E|-----------------------0---------|---------------------------------||
B|----------------------------0----|------------------------------0--||
G|-------------0-------------------|-------------0------------2------||
D|---------------------------------|----------------------0----------||
A|---------4-----------------------|---------3-----------------------||
E|---0--------------0--------------|--0------------------------------||

E|-----------------------0---------|----------------------0----------||
B|----------------------------0----|----------------------------0----||
G|-------------0-------------------|------------0--------------------||
D|---------7-----------------------|--------4------------------------||
A|---------------------------------|---------------------------------||
E|---0--------------0--------------|---0-------------0---------------||

E|-----------------------0---------|---------------------------------||
B|----------------------------0----|------------------------------0--||
G|-------------0-------------------|-------------0------------2------||
D|---------------------------------|---------------------------------||
A|---------4-----------------------|---------3-----------------------||
E|---0--------------0--------------|--0--------------------1---------||

E|---------------------------------|---------------------------------||
B|---------------------------------|---------------------------------||
G|-------__------------------------|------__-------------------------||
D|------7--9-----------------------|-----7--9------------------------||
A|------7--------------------------|-----7---------------------------||
E|------0--------------------------|-----0---------------------------||

E|---------------------------------|---------------------------------||
B|---------------------------------|---------------------------------||
G|-------__------------------------|----__---------------------------||
D|------7--9-----------------------|---7--9\---5----5--------7---7---||
A|------7--------------------------|---7--7\---3----3--------5---5---||
E|------0--------------------------|---0-----------------------------||

E|---------------------------------|---------------------------------||
B|---------------------------------|---------------------------------||
G|-------__------------------------|------__-------------------------||
D|------7--9-----------------------|-----7--9------------------------||
A|------7--------------------------|-----7---------------------------||
E|------0--------------------------|-----0---------------------------||

E|---------------------------------|---------------------------------||
B|---------------------------------|---------------------------------||
G|-------__------------------------|----__---------------------------||
D|------7--9-----------------------|---7--9\---5----5-------X--------||
A|------7--------------------------|---7--7\---3----3-------X--3--3--||
E|------0--------------------------|---0-----------------------1--1--||

E|---------------------------------|---------------------------------||
B|---------------------------------|---------------------------------||
G|---------------------------------|---------------------------------||
D|-------------7--5----------------|-------------4--5----------------||
A|---2--2--2---7--5---2--2--2--2---|---X--X------4--5---2--2--2--2---||
E|---0--0--0----------0--0--0--0---|---X--X--0----------0--0--0--0---||

E|---------------------------------|---------------------------------||
B|---------------------------------|---------------------------------||
G|---------------------------------|---------------------------------||
D|-------------6--5----------------|-----------------------------0---||
A|---X--X------4--5---2--2--2--2---|---X--X-------2--3----X--X---0---||
E|---X--X--0----------0--0--0--0---|---X--X--0----2--3----X--X-------||

E|---------------------------------|---------------------------------||
B|---------------------------------|---------------------------------||
G|---------------------------------|---------------------------------||
D|-------------7--5----------------|-------------4--5----------------||
A|---2--2--2---7--5---2--2--2--2---|---X--X------4--5---2--2--2--2---||
E|---0--0--0----------0--0--0--0---|---X--X--0----------0--0--0--0---||

E|---------------------------------|---------------------------------||
B|---------------------------------|---------------------------------||
G|---------------------------------|---------------------------------||
D|-------------6--5----------------|---------------------------------||
A|---X--X------4--5---2--2--2--2---|---X--X-------2--3----X--X---3---||
E|---X--X--0----------0--0--0--0---|---X--X--0----2--3----X--X---1---||

E|---------------------------------|---------------------------------||
B|---------------------------------|---------------------------------||
G|---------------------------------|---------------------------------||
D|----------7--7-------------------|----------4--5-------------------||
A|--2-2-2---5--5---X-X-2---X-X-2---|--X-X-----4--5---X-X-2---X-X-2---||
E|--0-0-0----------X-X-0---X-X-0---|--X-X-0----------X-X-0---X-X-0---||

E|---------------------------------|---------------------------------||
B|---------------------------------|---------------------------------||
G|---------------------------------|---------------------------------||
D|----------6--5-------------------|-----------------------------0---||
A|--X-X-----4--5---X-X-2---X-X-2---|---X--X-------2--3----X--X---0---||
E|--X-X-0----------X-X-0---X-X-0---|---X--X--0----2--3----X--X-------||

E|---------------------------------|---------------------------------||
B|---------------------------------|---------------------------------||
G|---------------------------------|---------------------------------||
D|----------7--7-------------------|----------4--5-------------------||
A|--2-2-2---5--5---X-X-2---X-X-2---|--X-X-----4--5---X-X-2---X-X-2---||
E|--0-0-0----------X-X-0---X-X-0---|--X-X-0----------X-X-0---X-X-0---||

E|---------------------------------|---------------------------------||
B|---------------------------------|---------------------------------||
G|---------------------------------|---------------------------------||
D|----------6--5-------------------|---------------------------------||
A|--X-X-----4--5---X-X-2---X-X-2---|---X--X-------2--3----X--X---3---||
E|--X-X-0----------X-X-0---X-X-0---|---X--X--0----2--3----X--X---1---||

    Mute all 6 strings with left hand for percussive effect
E||X-X---X-X---X-X---X-X-|-X-X---X-X---X-X---X-X-|-X-X---X-X---X-X---X-X--X-||
B||X-X---X-X---X-X---X-X-|-X-X---X-X---X-X---X-X-|-X-X---X-X---X-X---X-X--X-||
G||X-X---X-X---X-X---X-X-|-X-X---X-X---X-X---X-X-|-X-X---X-X---X-X---X-X--X-||
D||X-X---X-X---X-X---X-X-|-X-X---X-X---X-X---X-X-|-X-X---X-X---X-X---X-X--X-||
A||X-X---X-X---X-X---X-X-|-X-X---X-X---X-X---X-X-|-X-X---X-X---X-X---X-X--X-||
e||X-X---X-X---X-X---X-X-|-X-X---X-X---X-X---X-X-|-X-X---X-X---X-X---X-X--X-||

First Verse

    Esus2
E|--7---7---X---X---7---7---X---X---7---7---X---X---7---7---X---X--||
B|--7---7---X---X---7---7---X---X---7---7---X---X---7---7---X---X--||
G|--9---9---X---X---9---9---X---X---9---9---X---X---9---9---X---X--||
D|--9---9---X---X---9---9---X---X---9---9---X---X---9---9---X---X--||
A|--7---7---X---X---7---7---X---X---7---7---X---X---7---7---X---X--||
E|-----------------------------------------------------------------||

   C(add#4)
E|-----------------------------------------------------------------||
B|--8---8---X---X---8---8---X---X---8---8---X---X---8---8---X---X--||
G|--9---9---X---X---9---9---X---X---9---9---X---X---9---9---X---X--||
D|--X---X---X---X---X---X---X---X---X---X---X---X---X---X---X---X--||
A|--9---9---X---X---9---9---X---X---9---9---X---X---9---9---X---X--||
E|--8---8---X---X---8---8---X---X---8---8---X---X---8---8---X---X--||

      A5
E|-----------------------------------------------------------------||
B|--10--10--X---X---10--10--X---X---10--10--X---X---10--10--X---X--||
G|--9---9---X---X---9---9---X---X---9---9---X---X---9---9---X---X--||
D|--7---7---X---X---7---7---X---X---7---7---X---X---7---7---X---X--||
A|-----------------------------------------------------------------||
E|-----------------------------------------------------------------||

      C5                              B5
E|--8---8---X---X---8---8---X---X---8---8---X---X---8---8---X---X--||
B|--8---8---X---X---8---8---X---X---7---7---X---X---7---7---X---X--||
G|--5---5---X---X---5---5---X---X---5---5---X---X---5---5---X---X--||
D|-----------------------------------------------------------------||
A|-----------------------------------------------------------------||
E|-----------------------------------------------------------------||

    Esus2
E|--7---7---X---X---7---7---X---X---7---7---X---X---7---7---X---X--||
B|--7---7---X---X---7---7---X---X---7---7---X---X---7---7---X---X--||
G|--9---9---X---X---9---9---X---X---9---9---X---X---9---9---X---X--||
D|--9---9---X---X---9---9---X---X---9---9---X---X---9---9---X---X--||
A|--7---7---X---X---7---7---X---X---7---7---X---X---7---7---X---X--||
E|-----------------------------------------------------------------||

   C(add#4)
E|-----------------------------------------------------------------||
B|--8---8---X---X---8---8---X---X---8---8---X---X---8---8---X---X--||
G|--9---9---X---X---9---9---X---X---9---9---X---X---9---9---X---X--||
D|--X---X---X---X---X---X---X---X---X---X---X---X---X---X---X---X--||
A|--9---9---X---X---9---9---X---X---9---9---X---X---9---9---X---X--||
E|--8---8---X---X---8---8---X---X---8---8---X---X---8---8---X---X--||

      A5
E|-----------------------------------------------------------------||
B|--10--10--X---X---10--10--X---X---10--10--X---X---10--10--X---X--||
G|--9---9---X---X---9---9---X---X---9---9---X---X---9---9---X---X--||
D|--7---7---X---X---7---7---X---X---7---7---X---X---7---7---X---X--||
A|-----------------------------------------------------------------||
E|-----------------------------------------------------------------||

      C5                              F5
E|--8---8---X---X---8---8---X---X---8---8---X---X------------------||
B|--8---8---X---X---8---8---X---X---6---6---X---X---6---6---X---X--||
G|--5---5---X---X---5---5---X---X---5---5---X---X---5---5---X---X--||
D|-----------------------------------------------------------------||
A|-----------------------------------------------------------------||
E|-----------------------------------------------------------------||

Pre-Chorus

    Guitar 1
E|-----------2---|--------3-------|---4------------|----3----2-----||
B|---------------|------------3---|-----5--4h5p4---|----3----0-----||
G|-------4-------|-----5----------|-6------------6-|---------------||
D|---------------|----------------|----------------|---------------||
A|---------------|----------------|----------------|---------------||
E|---------------|----------------|----------------|---------------||
 ||Guitar 2       |                |                |               ||
  || Esus2         | Csus2          | C#madd9        |    G   B5     ||
E|---------------|----------------|----------------|---------------||
B|---------------|----------------|----------------|----0----------||
G|---9-----------|---5------------|-6--------------|----0----4-----||
D|---9-----------|---5------------|-6--------------|----0----4-----||
A|---7-----------|---3------------|-4--------------|---------2-----||
E|---0-----------|----------------|----------------|----3----------||

    Guitar 1
E|------2---3--2-|------2----3--2-|---4------------|----3----2-----||
B|---------------|----------------|-----5--4h5p4---|----3----0-----||
G|---4-----------|---5------------|-6------------6-|---------------||
D|---------------|----------------|----------------|---------------||
A|---------------|----------------|----------------|---------------||
E|---------------|----------------|----------------|---------------||
 ||Guitar 2       |                |                |               ||
  || Esus2         | Csus2          | C#madd9        |    G   B5     ||
E|---------------|----------------|----------------|---------------||
B|---------------|----------------|----------------|----0----------||
G|---9-----------|---5------------|-6--------------|----0----4-----||
D|---9-----------|---5------------|-6--------------|----0----4-----||
A|---7-----------|---3------------|-4--------------|---------2-----||
E|---0-----------|----------------|----------------|----3----------||

Synth Solo #1

     E5    Play with heavy palm muting next 8 bars     D/F#
E|---------------------------------|---------------------------------||
B|---------------------------------|---------------------------------||
G|---------------------------------|---------------------------------||
D|---------------------------------|---------------------------------||
A|-2-2-2-2-2-2-2-2-2-2-2-2-2-2-2-2-|-5-5-5-5-5-5-5-5-5-5-5-5-5-5-5-5-||
E|-0-0-0-0-0-0-0-0-0-0-0-0-0-0-0-0-|-2-2-2-2-2-2-2-2-2-2-2-2-2-2-2-2-||

     C#dim (no 3rd)                     C5
E|---------------------------------|---------------------------------||
B|---------------------------------|---------------------------------||
G|---------------------------------|---------------------------------||
D|-5-5-5-5-5-5-5-5-5-5-5-5-5-5-5-5-|-5-5-5-5-5-5-5-5-5-5-5-5-5-5-5-5-||
A|-4-4-4-4-4-4-4-4-4-4-4-4-4-4-4-4-|-3-3-3-3-3-3-3-3-3-3-3-3-3-3-3-3-||
E|---------------------------------|---------------------------------||

     E5                                F#5
E|---------------------------------|---------------------------------||
B|---------------------------------|---------------------------------||
G|---------------------------------|---------------------------------||
D|---------------------------------|---------------------------------||
A|-2-2-2-2-2-2-2-2-2-2-2-2-2-2-2-2-|-4-4-4-4-4-4-4-4-4-4-4-4-4-4-4-4-||
E|-0-0-0-0-0-0-0-0-0-0-0-0-0-0-0-0-|-2-2-2-2-2-2-2-2-2-2-2-2-2-2-2-2-||

     C#dim (no 3rd)                     C5              F5
E|---------------------------------|---------------------------------||
B|---------------------------------|---------------------------------||
G|---------------------------------|---------------------------------||
D|-5-5-5-5-5-5-5-5-5-5-5-5-5-5-5-5-|-5-5-5-5-5-5-5-5-----------------||
A|-4-4-4-4-4-4-4-4-4-4-4-4-4-4-4-4-|-3-3-3-3-3-3-3-3-3-3-3-3-3-3-3-3-||
E|---------------------------------|-----------------1-1-1-1-1-1-1-1-||

Second Verse

      E5                       G5       Palm mute next 3 bars
E|---------------------------------|---------------------------------||
B|---------------------------------|---------------------------------||
G|---------------------------------|---------------------------------||
D|---------------------------5-----|---------------------------------||
A|--2---2--------------------5-----|---------------------------------||
E|--0---0--------------------3-----|-0-0-2-0-3-0-0-6-0-5-0-0-3-0-1-0-||

E|---------------------------------|---------------------------------||
B|---------------------------------|---------------------------------||
G|---------------------------------|---------------------------------||
D|---------------------------------|---------------------------------||
A|---------------------------------|---------------------------------||
E|-0-0-2-0-3-0-0-6-0-5-0-0-3-0-1-0-|-0-0-2-0-3-0-0-6-0-5-0-0-3-0-1-0-||

E|---------------------------------|---------------------------------||
B|---------------------------------|---------------------------------||
G|---------------------------------|---------------------------------||
D|---------------------------------|---------------------------------||
A|---------------------------------|---------------------------------||
E|-0-0-2p0-3p0-0-6p0-5p0-0-3p0-1p0-|-0-0-2p0-3p0-0-6p0-5p0-0-3p0-1p0-||

                                     PM...................\     PM......
E|---------------------------------|---------------------------------||
B|---------------------------------|---------------------------------||
G|---------------------------------|-----------------------5p4-2-----||
D|---------------------------------|-----------------5-4-2-----------||
A|---------------------------------|-----------3-2-0-----------------||
E|-0-0-2p0-3p0-0-6p0-5p0-0-3p0-1p0-|-0-2-3-2-0-------------------3-2-||

                                          Pre-Chorus #2

   PM.......\         PM......................\        PM..................
E|----------------------------------|-----------------------------------||
B|----------------------------------|-----------------------------------||
G|----------------------------------|-----------------------------------||
D|----------------------------------|-----------------------------------||
A|-------0-2-3-3p2p0---2---0---0----|-------2-3-5-5p3p2---3---2---2-----||
E|-0-2-3-------------5---2---2--3-2-|-0-3-5-------------5---5---3---5-3-||

   PM......\          PM..................\            PM....\
E|-------------------------------|----------------------------------------||
B|-------------------------------|----------------------------------------||
G|-------------------------------|----------------------------------------||
D|-------------------------------|---------2h5p2h5p2p0--------4h7p4h7p4p0-||
A|------4-5-7-7p5p4--4-5-4-4-----|---2-3-5---------------3-5-7------------||
E|-0-5-7----------------7-5-7-5--|-0--------------------0-----------------||

   PM......\         PM.........................\         PM...............\
E|-------------------------------------|----------------------------------||
B|-------------------------------------|----------------------------------||
G|-------------------------------------|----------------------------------||
D|------4-5-7p5h7p5-4-5-4--------------|------5-7-9-9p7p5-5-7--5--5-------||
A|-7-5-7-----------------7-9-7-5-9-7-5-|-7-7-9----------------9--7--7-5---||
E|-------------------------------------|----------------------------------||

   PM...........\        PM...............\
E|---------------------------------------||
B|---------------------------------------||
G|---------------------------------------||
D|--------7-9-11-11p9p7-7-9---7---7------||
A|-9-9-11-------------------11--9---11-9-||
E|---------------------------------------||

   Guitar1
                                    ~~~~~~~~      ~~~~~~~~~~      ~~~~~~
E|------------------------------------|------------------------------||
B|------------------------------13-12-|----12-13-15--------13-12-----||
G|---------------------10-----10------|--------------------------14--||
D|----------------9-10---10-10--------|------------------------------||
A|------------------------------------|------------------------------||
E|------------------------------------|------------------------------||
 || Guitar 2                           |                              ||
 || PM.......\          PM...\         |          PM....\             ||
E|------------------------------------|------------------------------||
B|------------------------------------|------------------------------||
G|--------------------------------5---|------------------------------||
D|--------9-10-12p10p9-----3--2-3-----|------------------------------||
A|-10-10-9-------------2-3--3-------2-|------------------2--------3--||
E|----------------------------------0-|------------0--0--0--------1--||

   Guitar1                                          
                                                    ~~~~~
E|----------------------------------------16-16-17-18-||
B|----------------------------17-18-20-18-------------||
G|----16-17-18-19-17-18-19-20-------------------------||
D|-17-------------------------------------------------||
A|----------------------------------------------------||
E|----------------------------------------------------||
 || Guitar 2                                           ||
 ||                           PM........\              ||
E|----------------------------------------------------||
B|----------------------------------------------------||
G|----------------------------------------------------||
D|----------------------------------------------------||
A|----------------------------------------3-----------||
E|-----------------------------1------1---1-----------||

       B5  C5  D5   B       A5          G5   C5                  ~~~~~~~~
E|---------------------------------|---------------------------------||
B|----------------4-------10\------|--8---------------------3--------||
G|---4---5---7----4--------9\------|--7----5----4---4p2--4-----4-----||
D|---4---5---7----4--------7\------|--5----5-------------------------||
A|-------------------------7\------|--5----3-------------------------||
E|---------------------------------|---------------------------------||

Chorus #1

                A5         A5           A5      A5   F5      G5  G5
E|------|------------|----------|----------|-------------------------||
B|------|------------|----------|----------|-------6-------8---8-----||
G|------|-----2------|----2-----|-----2----|---2---5-------7---7-----||
D|------|-----2------|----2-----|-----2----|---2---3-------5---5-----||
A|------|-----0------|----0-----|-----0----|---0---3-------5---5-----||
E|------|------------|----------|----------|-------------------------||

     A5     G\B  C5     C5             D5       E5  F5    F5      Bb5
E|----------------|----------------|-----------------|---------------||
B|----------------|----------------|-----------------|---------------||
G|-2-----------5--|---5------------|-7--------9---10-|--10-------3---||
D|-2-------5---5--|---5------------|-7--------9---10-|--10-------3---||
A|-0-------2---3--|---3------------|-5--------7----8-|---8-------1---||
E|----------------|----------------|-----------------|---------------||

          PM.....................\          PM.....................\
E|---------------------------------|---------------------------------||
B|---------------------------------|---------------------------------||
G|---0h2---------------------------|---0h2---------------------------||
D|---0h2---------------------------|---0h2---------------------------||
A|---0h2--2--2--2--2--2-2-2--2-2---|---0h2--2--2--2--2--2-2-2--2-2---||
E|--------0--0--0--0--0-0-0--0-0---|--------0--0--0--0--0-0-0--0-0---||

          PM.....................\          PM.....................\
E|---------------------------------|---------------------------------||
B|---------------------------------|---------------------------------||
G|---0h2---------------------------|---0h2---------------------------||
D|---0h2---------------------------|---0h2---------------------------||
A|---0h2--2--2--2--2--2-2-2--2-2---|---0h2--2--2--2--2--2-2-2--2-2---||
E|--------0--0--0--0--0-0-0--0-0---|--------0--0--0--0--0-0-0--0-0---||

Verse #3

          ~~~~                 ~~~~~~~~      ~~~~~~~~~
E|---------------------------------|---------------------------------||
B|---------------------------------|---------------------------------||
G|---------------------------------|---------------------------------||
D|---------------------------------|---------------------------------||
A|--------------------x---x---5----|---7p5--7----------5h7p5---------||
E|--0----3----5---7----------------|--------------------------7------||

           ~~~~                 ~~~~~~~~      ~~~~~      D5         D5
E|---------------------------------|----------------------------------||
B|---------------------------------|----------------------------------||
G|---------------------------------|--------------------7----------7--||
D|---------------------------------|--------------------7----------7--||
A|--------------------x---x---5----|---7p5--------x--x--5----x--x--5--||
E|--0----3----5---7----------------|--------8-----x--x--5----x--x--5--||

          ~~~~                 ~~~~~~~~      ~~~~     ~~trill~~
E|---------------------------------|---------------------------------||
B|---------------------------------|---------------------------------||
G|---------------------------------|---------------------------------||
D|---------------------------------|---------------------------------||
A|--------------------x---x---5----|---7p5--7----------5h7p5---------||
E|--0----3----5---7----------------|---------------------------------||

          ~~~~                 ~~~~~~~~      ~~~~~    
E|---------------------------------|----------------------------------||
B|---------------------------------|----------------------------------||
G|---------------------------------|----------------------------------||
D|---------------------------------|--------------------3----------3--||
A|--------------------x---x---5----|--7p5---------3--3--3----3--3--3--||
E|--0----3----5---7----------------|-------8---8\-1--1--1----1--1--1--||

Pre-Chorus #3

     Esus2          Csus2            C#madd9            G      B5
E|---------------|----------------|----------------|---------------||
B|---------------|----------------|----------------|---------------||
G|---9-----------|--5-------------|--6-------------|--0------4-----||
D|---9-----------|--3-------------|--4-------------|--0------4-----||
A|---7-----------|--3-------------|--4-------------|---------2-----||
E|---0-----------|----------------|----------------|--3------------||

     Esus2          Csus2            Csus2              G      B5
E|---------------|----------------|----------------|---------------||
B|---------------|----------------|----------------|---------------||
G|---9-----------|--5-------------|--5-------------|--0------4-----||
D|---9-----------|--3-------------|--3-------------|--0------4-----||
A|---7-----------|--3-------------|--3-------------|---------2-----||
E|---0-----------|----------------|----------------|--3------------||

Synth Solo #2

     E5                                F#5
E|---------------------------------|---------------------------------||
B|---------------------------------|---------------------------------||
G|---------------------------------|---------------------------------||
D|---------------------------------|---------------------------------||
A|-2-2-2-2-2-2-2-2-2-2-2-2-2-2-2-2-|-4-4-4-4-4-4-4-4-4-4-4-4-4-4-4-4-||
E|-0-0-0-0-0-0-0-0-0-0-0-0-0-0-0-0-|-2-2-2-2-2-2-2-2-2-2-2-2-2-2-2-2-||
                                                    ___________________
     C#dim (no 3rd)                     C5            | Harmonics       |
E|---------------------------------|-----------------------------------||
B|---------------------------------|-----------------------------13-12-||
G|---------------------------------|--------------------10---9-10------||
D|-5-5-5-5-5-5-5-5-5-5-5-5-5-5-5-5-|-5-5-5-5-5-5-5-5-10---10-----------||
A|-4-4-4-4-4-4-4-4-4-4-4-4-4-4-4-4-|-3-3-3-3-3-3-3-3-------------------||
E|---------------------------------|-----------------------------------||

          ~~~~~~~~~~     ~~~~
E|------------------------|---------------------------------------15-17-18-||
B|-12-13-15------13-12-13-|--------------------------15-15-16-17-19-18-----||
G|------------------------|---------------16-17-18-19----------------------||
D|------------------------|-17-15-17-18-19---------------------------------||
A|------------------------|------------------------------------------------||
E|------------------------|------------------------------------------------||

          ~~~~~~~~~~~~~~~~~~~~~~~       G5  C5                 (1)~~~~~~~~
E|------19-------------------------|--------------------------5^------||
B|---------------------------------|--8--------------------3----------||
G|---------------------------------|--7---5-----4---4p2-4-------------||
D|---------------------------------|--5---3---------------------------||
A|---------------------------------|--5---3---------------------------||
E|---------------------------------|----------------------------------||

Chorus #2

                A5         A5           A5
E|------|------------|----------|----------||
B|------|------------|----------|----------||
G|------|-----2------|----2-----|-----2----||
D|------|-----2------|----2-----|-----2----||
A|------|-----0------|----0-----|-----0----||
E|------|------------|----------|----------||

     A5   F5      G5  G5      A5         G\B  C5
E|-------------------------|-------------------||
B|-------6-------8---8-----|-------------------||
G|---2---5-------7---7-----|-2--------------5--||
D|---2---3-------5---5-----|-2----------5---5--||
A|---0---3-------5---5-----|-0----------2---3--||
E|-------------------------|-------------------||

       C5             D5       E5  F5    F5        Bb5
E|----------------|-----------------|----------------------||
B|----------------|-----------------|----------------------||
G|---5------------|-7--------9---10-|--10----10\-3-----3---||
D|---5------------|-7--------9---10-|--10----10\-3-----3---||
A|---3------------|-5--------7----8-|---8-----8\-1-----1---||
E|----------------|-----------------|----------------------||

                             ~~~~~~~~~                        ~~~~~~~~~~
E|---------------------------------|---------------------------------||
B|---------------------------------|---------------------------------||
G|-----------------0-------0-------|----------------0-------0--------||
D|-----------7---------------------|---------4-----------------------||
A|---------------------------------|---------------------------------||
E|---0-----------------------------|---0-----------------------------||

                             ~~~~~~~~~
E|---------------------------------|---------------------------------||
B|---------------------------------|-----------------------------0---||
G|----------------0--------0-------|-----------0------------2--------||
D|---------------------------------|-------------------0-------------||
A|---------4-----------------------|-------3-------------------------||
E|---0-----------------------------|--0------------------------------||

                             ~~~~~~~~~                        ~~~~~~~~~~
E|---------------------------------|---------------------------------||
B|---------------------------------|---------------------------------||
G|-----------------0-------0-------|----------------0-------0--------||
D|-----------7---------------------|---------4-----------------------||
A|---------------------------------|---------------------------------||
E|---0-----------------------------|---0-----------------------------||

                             ~~~~~~~~~
E|---------------------------------|---------------------------------||
B|---------------------------------|-----------------------------0---||
G|----------------0--------0-------|-----------0------------2--------||
D|---------------------------------|---------------------------------||
A|---------4-----------------------|-------3-------------------------||
E|---0-----------------------------|--0-----------------1------------||

E|-------------------0-------------|----------------------0----------||
B|---------------------------------|---------------------------------||
G|-------------0-------------------|-------------2--------0----------||
D|---------------------------------|--------4------------------------||
A|---------------------------------|---------------------------------||
E|----0----------------------------|----0----------------------------||

E|---------------------0-----------|---------------------------------||
B|---------------------7-----------|----------------------7----------||
G|---------------0-----------------|----------------------7----------||
D|---------------------------------|-------------5-------------------||
A|----------4----------------------|--------3------------------------||
E|----0----------------------------|----0----------------------------||

E|----7----7--7--7----7--7--7------|---10----10-10-10----10-10-10----||
B|----8----8--8--8----8--8--8------|---10----10-10-10----10-10-10----||
G|----7----7--7--7----7--7--7------|---11----11-11-11----11-11-11----||
D|----9----9--9--9----9--9--9------|---12----12-12-12----12-12-12----||
A|---------------------------------|---------------------------------||
E|---------------------------------|---------------------------------||

E|----12---12-12-12----12-12-12----|---12----12-12-12----12-12-12----||
B|----12---12-12-12----12-12-12----|---10----10-10-10----10-10-10----||
G|----12---12-12-12----12-12-12----|---10----10-10-10----10-10-10----||
D|----11---11-11-11----11-11-11----|---10----10-10-10----10-10-10----||
A|---------------------------------|---------------------------------||
E|---------------------------------|---------------------------------|

Solo
E|---------------------|----------------------|---------9~-------10--|
B|--(8)r7~----5--------|-----(7)r--5----------|----------------------|
G|----------------4----|---------------5~-----|-(9)r7----------------|
D|---------------------|----------------------|----------------------|
A|---------------------|----------------------|----------------------|
E|---------------------|----------------------|----------------------|

E|---9-7-----------------------------|--14~-----12------------|
B|-------10-8-7----------------------|----------------12~-----|
G|--------------9-7-6----------------|------------------------|
D|--------------------9-7-5----------|------------------------|
A|--------------------------9~-------|------------------------|
E|-----------------------------------|------------------------|

E|--14b(16)---14--12------------|
B|----------------------13~-----|
G|------------------------------|
D|------------------------------|
A|------------------------------|
E|------------------------------|

E|--16-12-16-12----12-16-12-16-12----12-17-12-17-12----12-16-12-16-12----12-|
B|--------------14----------------14----------------14----------------14----|
G|--------------------------------------------------------------------------|
D|--------------------------------------------------------------------------|
A|--------------------------------------------------------------------------|
E|--------------------------------------------------------------------------|

E|--14-15-14-12-------------------------------------------------------------------|
B|--------------15-13-12-10-12-13-12-10-------------------------------------------|
G|--------------------------------------12-11-9-8-9-11-9-8------------------------|
D|---------------------------------------------------------10-9-7-5-7-9-7-5-------|
A|--------------------------------------------------------------------------9-7-6-|
E|--------------------------------------------------------------------------------|

E|--------------------|---------------------------|----------------------|
B|--------------------|---------------------------|----------------------|
G|--9~----------------|---------------------------|----------------------|
D|--------------------|--------------------7/9\\7--|--10--------9------7--|
A|--------------------|-------9--10-----5--7/9\\7--|--8---------8------8--|
E|-----------------0~-|----7---------3------------|----------------------|

E|-------------------|
B|-------------------|
G|-------------------|
D|----------5--------|
A|----------5--------|
E|-------------------|
Composição de Dream Theater / Kevin Moore
Colaboração e revisão:
  • Célio Silva
  • Filipe Castanha
  • dougllas harris
51.279 exibições
    • ½ Tom
    • A
    • Bb
    • B
    • C
    • Db
    • D
    • Eb
    • E
    • F
    • F#
    • G
    • Ab
  • Adicionar à lista

    0 comentários

    Ver todos os comentários
    00:00 / 00:00
    outros vídeos desta música
    repetir qualidade Automático
    Outros vídeos desta música
    00:00 / 00:00
    Automático

    Cifra Club Pro

    Aproveite o Cifra Club com benefícios exclusivos e sem anúncios
    Cifra Club Pro
    Aproveite o Cifra Club com benefícios exclusivos e sem anúncios
    OK