Enviar cifraEntrar

Wither

Dream Theater

Cifra: Principal
exibições 33.012
Tom: C#
p = pull
b = bend

(John Petrucci usa uma guitarra barítono afinada em Bb standard, 
essa introdução foi adaptada)

(intro)

E |--------------------|
B |--------------------|
G |--------------------|
D |-------3---------6--|
A |---4---------4------|
E |-6---6-----2---2----|


(intro)
Let it out, let it out
Feel the empty Space
So insecure find the words and let it out

E |-----------------------------------------|
B |-----------------------------------------|
G |-----------------------------------------|
D |-------3---------6------3---6------------|
A |---4---------4--------4---4-------6---4--|
E |-6---6-----2---2----------------4---4----|


(intro)
Staring down, staring down
Nothing comes to mind
Find the place turn the water into wine

E |-----------------------------------------|
B |-----------------------------------------|
G |-----------------------------------------|
D |-------3---------6------3---6------------|
A |---4---------4--------4---4-------6---4--|
E |-6---6-----2---2----------------4---4----|


Gb9                     Bbm
But I feel I'm getting nowhere
Gb9                    Fm7  Asus4
And I'll never see the end

      Db  Ab     Bbm            Gb
So I wither and render myself helpless
   Db  Ab     Bbm             Gb
I give in and everything is clear
    Db    Ab      Gb9
I break down and let the story guide me

Bbm     Gb9         Bbm  Gb9               Bbm
Turn it on, turn it on, let the feelings flow
           Gb9           Db                 Absus4
Close your eyes, see the ones you used to know
Bbm  Gb9      Bbm          Gb9         Bbm
Open up, open up, don't struggle to relate
         Gb9           Db       Absus4
Lure it out, help the memory escape

Gb9                       Bbm
Still this barrenness consumes me
Gb9                    Fm7  Asus4
And I feel like giving up

      Db  Ab     Bbm            Gb
So I wither and render myself helpless
   Db  Ab     Bbm             Gb
I give in and everything is clear
    Db    Ab      Bbm           Gb
I break down and let the story guide me
   Db  Ab     Bbm          Gb
I wither and give myself away

Ebm      Ebm7            Gb
Like reflections on the page
     Ab                 Gb  Ab Bbm Gb Ab Bbm
The world's what you create

    Gb          Ab         Bbm
I drown in hesitation, my words come crashing down
    Gb             Ab      Bbm
And all my best creations burn into the ground
      Gb               Ab     Db        Ab  Bbm
The thought of staring over, leaves me paralysed
        Gb           Fm7             Ab
Tear it out again, another one that got away

(piano)
I wither
And render myself helpless
I give in
And everything is clear


   Db Ab Bbm Gb
E |----------------6--8--9----------------------------------------------------6--8---9b--9p8p9-|
B |-------------------------6---9b--------------6-8-9----------------6--8--9-------------------|
G |-6---8b--8p6p8-------------------------5-6-8-------------5--6--8----------------------------|
D |---------------------------------5-6-8-------------6--8-------------------------------------|
A |--------------------------------------------------------------------------------------------|
E |--------------------------------------------------------------------------------------------|


E |-11-9-11-9------11-9-11-9------13-11-13-11------13-11-13-11------14-11-14-11------14-11-14-11------14b-|
B |-----------11-9-----------11-9-------------11-9-------------11-9-------------11-9-------------11-9-----|
G |-------------------------------------------------------------------------------------------------------|
D |-------------------------------------------------------------------------------------------------------|
A |-------------------------------------------------------------------------------------------------------|
E |-------------------------------------------------------------------------------------------------------|


      Db  Ab     Bbm            Gb
So I wither and render myself helpless
   Db  Ab     Bbm             Gb
I give in and everything is clear
    Db    Ab      Bbm           Gb
I break down and let the story guide me
   Db  Ab     Bbm          Gb
I wither and give myself away

Ebm      Ebm7            Gb
Like reflections on the page
     Ab                 Bbm Gb9 Bbm
The world's what you create
     Gb9               Bbm Gb9 Bbm
The words which you create
       Gb9         Bbm
Let it out, let it out
  • 1
  • 2
  • 3
  • 4
  • 5
  • 6
  • 7
  • 8
  • 9
  • 10
  • 11
  • 12
    Acordes para:
      Composição: John PetrucciColaboração e revisão:
      • rachmaninoff
      • Giu

      0 comentários

        mostrar mais comentários

        Conseguiu tocar?

        4tocaram0ainda não

        Grave um vídeo tocando Wither e mande pra gente!

        00:00 / 00:00
        outros vídeos desta música
        repetirqualidadeautomática
        • automática
        Outro vídeos desta música
          00:00 / 00:00
          automática
          • automática
          Acordes para:violão e guitarra
          dificuldadeexibiçõescontribuições
          2 versões de Guitar Proformatodownloadscontribuição
          fecharplay/pause subir/descer velocidade
            acordes
            fechar
            OK
            Feedback